Ac Dc - You Shook Me All Night Long Chords & Tabs

 

You Shook Me All Night Long Chords & Tabs

Ac Dc Chords & Tabs

Version: 14 Type: Tab 0 ratings
1 star 2 stars 3 stars 4 stars 5 stars
comments

You Shook Me All Night Long Tab

   
-----------------------------------------------------------------------------
YOU SHOOK ME ALL NIGHT LONG - AC/DC
-----------------------------------------------------------------------------
Tabbed by: Sean Buccos
Email: AcDc1087@aol.com

Tuning: Standard

    Intro

e-|-3-------------------5-------3--3-----3--2--------2-------------|
B-|-3-------------------3-------3--3-----3--3--------3-------------|
G-|-0-------------------0-------0--0-----0--0--------2-------------|
D-|-0----0--0--0--0--0--0--0----------0--------0--0--0-------------|
A-|----------------------------------------------------------------|
E-|----------------------------------------------------------------|



e-|----2-----------------------|
B-|----3-------------3---------|
G-|----2-----------------------|
D-|-3--0--------3^4-----3--0---|
A-|----------------------------|
E-|----------------------------|



e-|-3-------------------5-------3--3-----3--2--------2---------------------|
B-|-3-------------------3-------3--3-----3--3--------3---------------------|
G-|-0-------------------0-------0--0-----0--0--------2---------------------|
D-|-0----0--0--0--0--0--0--0----------0--------0--0--0---------------------|
A-|------------------------------------------------------------------------|
E-|------------------------------------------------------------------------|

    Verse (5x)

e-||--3--------3----3--3----3----3--2--------3----3--2----3----2------||
B-||o-3--------3----3--3----3----3--3--------3----3--3----3----3-----o||
G-||--0--------0----0--0----0----0--2--------0----0--2----0----2------||
D-||o-0----------------0---------0--0--------0----0--0----0----0-----o||
A-||-----------3----3-------3-----------------------------------------||
E-||--3----------------3---------3-----------3----3-------3-----------||

    Pre-Chorus

e-|-3--------3----3--3----3----3--2-----|
B-|-3--------3----3--3----3----3--3-----|
G-|-0--------0----0--0----0----0--2-----|
D-|-0----------------0---------0--0-----|
A-|----------3----3-------3-------------|
E-|-3----------------3---------3--------|


    >
e-|-2----2--2--2----2--2----2--2--2--2---|
B-|-3----3--3--3----3--3----3--3--3--3---|
G-|-2----2--2--2----2--2----2--2--2--2---|
D-|-0----0--0--0----0--0----0--0--0--0---|
A-|--------------------------------------|
E-|--------------------------------------|

    Chorus (2x)
          >                                           >
e-|---||--3------------------3------------3-----------2----------|
B-|---||o-3------------------3------------3-----------3----------|
G-|---||--0---------------0--0---------0--0-----2-----2----------|
D-|---||o-0----------------------------------0-----0--0----------|
A-|---||-------0--2--3------------2------------------------------|
E-|-3-||--3------------------------------------------------------|



e-|---------------3------------3--------||--3--|
B-|---------------3------------3-------o||--3--|
G-|------------0--0---------0--0--------||--0--|
D-|---------------------------------0--o||-----|
A-|-0--2--3------------2----------------||-----|
E-|-------------------------------------||-----|

    Verse (3x)

e-||--3--------3----3--3----3----3--2--------3----3--2----3----2------||
B-||o-3--------3----3--3----3----3--3--------3----3--3----3----3-----o||
G-||--0--------0----0--0----0----0--2--------0----0--2----0----2------||
D-||o-0----------------0---------0--0--------0----0--0----0----0-----o||
A-||-----------3----3-------3-----------------------------------------||
E-||--3----------------3---------3-----------3----3-------3-----------||

    Pre-Chorus

e-|-3--------3----3--3----3----3--2-----|
B-|-3--------3----3--3----3----3--3-----|
G-|-0--------0----0--0----0----0--2-----|
D-|-0----------------0---------0--0-----|
A-|----------3----3-------3-------------|
E-|-3----------------3---------3--------|


    >
e-|-2----2--2--2----2--2----2--2--2--2---|
B-|-3----3--3--3----3--3----3--3--3--3---|
G-|-2----2--2--2----2--2----2--2--2--2---|
D-|-0----0--0--0----0--0----0--0--0--0---|
A-|--------------------------------------|
E-|--------------------------------------|

    Chorus (3x)
         >                                           >
e-|---||--3------------------3------------3-----------2----------|
B-|---||o-3------------------3------------3-----------3----------|
G-|---||--0---------------0--0---------0--0-----2-----2----------|
D-|---||o-0----------------------------------0-----0--0----------|
A-|---||-------0--2--3------------2------------------------------|
E-|-3-||--3------------------------------------------------------|



e-|---------------3------------3--------||--3--|
B-|---------------3------------3-------o||--3--|
G-|------------0--0---------0--0--------||--0--|
D-|---------------------------------0--o||-----|
A-|-0--2--3------------2----------------||-----|
E-|-------------------------------------||-----|

     Pre-Solo
         >
e-||-----3------------------3------------3----2------|
B-||o----3------------------3------------3----3------|
G-||-----0---------------0--0---------0--0----2------|
D-||o----0------------------------------------0------|
A-||----------0--2--3------------2-------------------|
E-||--3--3-------------------------------------------|

[ Tab from: http://www.guitartabs.cc/tabs/a/ac_dc/you_shook_me_all_night_long_tab_ver_14.html ]
    >                                   >
e-|-2----2--2--3----3--3----3--3--3--2--2----2--2--2----2--2----2-2-2-2--|
B-|-3----3--3--3----3--3----3--3--3--3--3----3--3--3----3--3----3-3-3-3--|
G-|-2----2--2--2----2--2----2--2--2--2--2----2--2--2----2--2----2-2-2-2--|
D-|-0----0--0--0----0--0----0--0--0--0--0----0--0--0----0--0----0-0-0-0--|
A-|----------------------------------------------------------------------|
E-|----------------------------------------------------------------------|

    Guitar Solo
         ~~~~~~~~                                                 ~~~~
e-|---------------|-3------------------|--------------|----------------|
B-|---------------|----3--6------------|--------------|----------------|
G-|-5^(7)---------|----------7^(5)-----|-3------------|----------------|
D-|---------------|--------------------|----5---5-----|-5--3-----------|
A-|---------------|--------------------|------5-------|-------5--3-----|
E-|---------------|--------------------|--------------|----------------|



e-|-------------------------------|----------------------------|
B-|-------3-----------------------|------6--6---------8--8-----|
G-|-------3-------------3---------|-5/7----------7/9-----------|
D-|------------5---5--------------|----------------------------|
A-|--------------5----------------|----------------------------|
E-|-6--3--------------------------|----------------------------|


                hold bend
e-|----------------10---------------------------------------------------|
B-|----8--10^(12)------(12)^(10)--8----8--11^(13)--10^(12)--8-----8-----|
G-|-9----------------------------------------------------------9--------|
D-|---------------------------------------------------------------------|
A-|---------------------------------------------------------------------|
E-|---------------------------------------------------------------------|


           ~~~~
e-|------------15-----------------------------------------|
B-|-18^(20)--------15--18------------------------17-------|
G-|------------------------17^(18)^(17)--15------17--15---|
D-|------------------------------------------17-----------|
A-|-------------------------------------------------------|
E-|-------------------------------------------------------|



e-|---------------------------------------------------------------------|
B-|----------18-----------18------------------------17--15--17--15\\\---|
G-|-17^(19)------17^(19)------17^(18)^(17)--15------17--15--17--15\\\---|
D-|---------------------------------------------17----------------------|
A-|---------------------------------------------------------------------|
E-|---------------------------------------------------------------------|


                        ~~~~                                     ~~~~
e-|-----18^(20)--17^(19)----17^(18)^(17)--15--17------15--------------|
B-|-15--------------------------------------------17------18^(20)-----|
G-|-------------------------------------------------------------------|
D-|-------------------------------------------------------------------|
A-|-------------------------------------------------------------------|
E-|-------------------------------------------------------------------|


                                     ~~~~
e-|-15------------------------------------|
B-|-----18--------------------------------|
G-|---------17^(19)^(17)--15--17^(19)-----|
D-|---------------------------------------|
A-|---------------------------------------|
E-|---------------------------------------|


                                         ~~
e-|--------15------15----17^(19)^(17)--15--\\\-|
B-|-15/17------17------------------------------|
G-|--------------------------------------------|
D-|--------------------------------------------|
A-|--------------------------------------------|
E-|--------------------------------------------|

    Chorus (3x)
         >                                           >
e-||-----3------------------3------------3-----------2----------|
B-||o----3------------------3------------3-----------3----------|
G-||-----0---------------0--0---------0--0-----2-----2----------|
D-||o----0----------------------------------0-----0--0----------|
A-||----------0--2--3------------2------------------------------|
E-||--3--3------------------------------------------------------|



e-|---------------3------------3------||
B-|---------------3------------3-----o||
G-|------------0--0---------0--0------||
D-|----------------------------------o||
A-|-0--2--3------------2----------2---||
E-|-----------------------------------||

     Ending
       >                                       >  >
e-|----3------------------3------------3--2----2--2------|
B-|----3------------------3------------3--3----3--3------|
G-|----0---------------0--0---------0--0--2----2--2------|
D-|----0----------------------------------0----0--0------|
A-|---------0--2--3------------2-------------------------|
E-|-3--3-------------------------------------------------|


                                       >  >
e-|---------------3------------3--2----2--2------|
B-|---------------3------------3--3----3--3------|
G-|------------0--0---------0--0--2----2--2------|
D-|-------------------------------0----0--0------|
A-|-0--2--3------------2-------------------------|
E-|----------------------------------------------|



e-|---------------3------------3---|
B-|---------------3------------3---|
G-|------------0--0---------0--0---|
D-|--------------------------------|
A-|-0--2--3------------2-----------|
E-|--------------------------------|



e-|-2----2--2--2--2--2--2--2----2--2--2--2--2--2-2-2-2-2-2-2-2---|
B-|-3----3--3--3--3--3--3--3----3--3--3--3--3--3-3-3-3-3-3-3-3---|
G-|-2----2--2--2--2--2--2--2----2--2--2--2--2--2-2-2-2-2-2-2-2---|
D-|-0----0--0--0--0--0--0--0----0--0--0--0--0--0-0-0-0-0-0-0-0---|
A-|--------------------------------------------------------------|
E-|--------------------------------------------------------------|


| /  slide up
| \  slide down
| h  hammer-on
| p  pull-off
| ^ bend
| ~  vibrato
| +  harmonic
| x  Mute note
=============================================================================
Comments