Ac Dc - You Shook Me All Night Long Chords & Tabs

 

You Shook Me All Night Long Chords & Tabs

Ac Dc Chords & Tabs

Version: 11 Type: Tab 0 ratings
1 star 2 stars 3 stars 4 stars 5 stars
comments

You Shook Me All Night Long Tab

ACDC - You shook me all night long
Stratster182


Intro: 
       
E|------------------------------------------------------------------2~-|
B|-8~--10--8-8---8-7-----7-----7-----7--------8~--10--8-8---8-7-----3~-|
G|-7~---7--7---7-----7---7-----7-----7--------7~---7--7---7-----7---2~-|
D|---------------------0-0-----0---------0------------------------0-0~-|
A|-------------------------8/9---8/9---8-------------------------------|
E|---------------------------------------------------------------------|

Verse: 
 
E|-3---3--3--3--3--3--2---3--3--2--3--2-|-3---3--3--3--3--3--2---3--3--2--3--2-|
B|-3---3--3--3--3--3--3---3--3--3--3--3-|-3---3--3--3--3--3--3---3--3--3--3--3-|
G|-0---0--0--0--0--0--2---0--0--2--0--2-|-0---0--0--0--0--0--2---0--0--2--0--2-|
D|-0--(2)(2)-0-(2)-0--0---0--0--0--0--0-|-0--(2)(2)-0-(2)-0--0---0--0--0--0--0-|
A|(2)--3--3-(2)-3-(2)----(2)(2)---(2)---|(2)--3--3-(2)-3-(2)-------------------|
E|-3---------3-----3------3--3-----3----|-3---------3-----3--------------------|

Chorus

E|----3------------------------2----------------------|
B|----3----------3------3------3----------3-------3---|
G|----0--------0------0---0----2--------0---0---0---0-|
D|----0---------------------0--0----------------------|
A|---(2)-0-2-3------2-------------0-2-3-------2-------|
E|-3--3-----------------------------------------------|

Pre-solo Riff:
[ Tab from: http://www.guitartabs.cc/tabs/a/ac_dc/you_shook_me_all_night_long_tab_ver_11.html ]
E|----3------------------------2-2-2-2-2-3-3-3-3-3-2-2-2-2-2-2-2-2-2-|
B|----3----------3------3------3-3-3-3-3-3-3-3-3-3-3-3-3-3-3-3-3-3-3-|
G|----0--------0------0---0----2-2-2-2-2-0-0-0-0-0-2-2-2-2-2-2-2-2-2-|
D|----0---------------------0--0-0-0-0-0-0-0-0-0-0-0-0-0-0-0-0-0-0-0-|
A|---(2)-0-2-3------2--------------------x-x-x-x-x-------------------|
E|-3--3----------------------------------3-3-3-3-3-------------------|

Solo:

E|----3---6--------------------------------------------------------8-----------|
B|------3---5~--------------------------6-6----8-8----8-10b-8---8--10-10bp8--8-|
G|-5b~---------3-------------3-----3b-/7-----/9------9---------9-------------9-|
D|---------------5~--5-3-------5-5---------------------------------------------|
A|-----------------5-----5-3~--------------------------------------------------|
E|-----------------------------------------------------------------------------|


E|-15~-15-------------------------------------------------------------|
B|--------15-18-----------17-15-----18-----18------------17-15-17-15\-|
G|--------------17~-15----17-15-17b----17b----17rb-15----17-15-17-15\-|
D|---------------------17-----------------------------17--------------|
A|--------------------------------------------------------------------|
E|--------------------------------------------------------------------|


E|---18~-17~-17-15---17---15----15-----------------------15------15-18-18b-15~-|
B|-15-------------17---17---18b---18bp15------------17-17---17-17--------------|
G|---------------------------------------17b-15-17b----------------------------|
D|-----------------------------------------------------------------------------|
A|-----------------------------------------------------------------------------|
E|-----------------------------------------------------------------------------|

Order:
Intro---------x1
Verse---------x2
Chorus--------x2
Verse---------x2
Chorus--------x2
Pre-solo riff-x1
Solo----------x1

I hope that I have the order right but i am not sure.  Email corrections to me,
do not post them because i can print emails easier.  Criticize my work so i can laugh at you.
K have fun>>>>>>Peace
Comments