Ac Dc - You Shook Me All Night Long Chords & Tabs

 

You Shook Me All Night Long Chords & Tabs

Ac Dc Chords & Tabs

Version: 1 Type: Tab 4 ratings
1 star 2 stars 3 stars 4 stars 5 stars
comments

You Shook Me All Night Long Tab

Artist: AC DC
Song: You Shook Me All Night Long
Tabbed by: John Leadman



Intro:
E|--3~-------------5--|----3--3-----3--2--------|---------------------|
B|--3~-------------3--|----3-----3--------3-----|--3------------------|
G|--0~-------------0--|-------------------------|--2------------2--2--|
D|--------------------|----------------------0--|--0------------3b-0--|
A|--------------------|-------------------------|---------------------|
E|--------------------|-------------------------|---------------------|

|-----------------------|--3~-------------5--|----3--3-----3--2--------|
|--------------3--------|--3~-------------3--|----3-----3--------3-----|
|--------------2--------|--0~-------------0--|-------------------------|
|--------3/-4-----3b-0--|--------------------|----------------------0--|
|-----------------------|--------------------|-------------------------|
|-----------------------|--------------------|-------------------------|

|--2----------------|------------------|
|--3----------------|------------------|
|--2----------------|------------------|
|--0----------------|------------------|
|-------------------|------------------|
|-------------------|------------------|


Verse:
|---3-----------------|-----------------------|----------------3--|
|---3--------------1--|----1--3----1----3--3--|----------------3--|
|---0--------------0--|----0--0----0----0--2--|----------------0--|
|---0--------------2--|----2--0----2----0--0--|----------------0--|
|------------------3--|----3-------3----------|-------------------|
|---3-----------------|-------3---------3-----|----------------3--|
[ Tab from: http://www.guitartabs.cc/tabs/a/ac_dc/you_shook_me_all_night_long_tab.html ]
|----3------------------|--3-----------------|--------------------2--|
|----3--3----3----3-----|--3--------------1--|-------0----1----3--3--|
|----0--2----0----2-----|--0--------------0--|-------0----0----0--2--|
|----0--0----0----0-----|--0--------------2--|-------0----2----0--0--|
|-----------------------|-----------------3--|----3--2----3----------|
|----3-------3----------|--3-----------------|-------3---------3-----|

|------------2-----3--|----3--------3---------|
|------------3-----3--|----3--3--3--3----3----|
|------------2-----0--|----0--2--2--0----2----|
|------------0-----0--|----0--0--0--0----0----|
|---------------0-----|-----------------------|
|------------------3--|----3--------3---------|


Chorus:
|-----------------------|-------------------------|
|-------3---------------|-------3--------3-----3--|
|--0----0---------------|----0-----------------2--|
|--0----0---------------|-------------------0--0--|
|--------------0--2--3--|----------2--2-----------|
|--3----3---------------|-------------------------|

|-----------------------|-------3---------3----|-----------------------|
|------3----3-----------|-------3---------3----|-------3---------------|
|------2----2-----------|----0-----0------0----|--0----0---------------|
|------0----0-----------|----------------------|--0----0---------------|
|------0----0--0--2--3--|----------2-----------|--------------0--2--3--|
|-----------------------|----------------------|--3----3---------------|

|-------------------------|-----------------------|----------------------|
|-------3--------3-----3--|------3----3-----------|-------3--3-----------|
|----0-----------------2--|------2----2-----------|----0-----0-----------|
|-------------------0--0--|------0----0-----------|----------------------|
|----------2--2-----------|------0----0--0--2--3--|----------2------2----|
|-------------------------|-----------------------|----------------------|


Comments