Ac Dc - You Shook Me All Night Long Chords & Tabs

 

You Shook Me All Night Long Chords & Tabs

Ac Dc Chords & Tabs

Version: 2 Type: Bass Tab 0 ratings
1 star 2 stars 3 stars 4 stars 5 stars
comments

You Shook Me All Night Long Bass Tab

THis is a great song its not to hard and its funn

wait till right before 1st chorus u can hear it come in
---------------------------------------------------------------------|
---------------------------------------------------------------------|
-5-5-5-5-5-5-5-5-5-5-5-5-5-5-----------------------------------------|
---------------------------------------------------------------------|
Chorus

-------------------------------------------|
-------------------------------------------|x2
---0-2-3-2/5-5-5-0-2-3-2-------------------|
3-3----------------------3-3---------------|
[ Tab from: http://www.guitartabs.cc/tabs/a/ac_dc/you_shook_me_all_night_long_btab_ver_2.html ]
verse
--------------------------------------------|
--------------------------------------------|x2
--3-3--3-5-----5-5--------------------------|
-3---3--3---3-3-3-3-------------------------|
on third time do this
--------------------------------------------|
--------------------------------------------|
--3-3--3-5-----5-5-5-5-5-5-5----------------|
-3---3--3---3-3-3---------------------------|

Chourus again

on third rep of chorus  stay on that G or third fret untill solo starts then keep 
the chorus progession

keep playing theres another chorus then it goes it to the progession after he says "ya you shook me"

-------------------------------------------------|
-------------------------------------------------|
---0-2-3-2-5-5-5-0-2-3-5-5-5-0-2-3-5-5-5-5-5-5-5-| and end on that D let ring
-3-----------------------------------------------|
Comments