Ac Dc - Whole Lotta Rosie Chords & Tabs

 

Whole Lotta Rosie Chords & Tabs

Ac Dc Chords & Tabs

Version: 5 Type: Tab 0 ratings
1 star 2 stars 3 stars 4 stars 5 stars
comments

Whole Lotta Rosie Tab

Ac Dc
Whole Lotta Rosie
Intro, 1st Verse, and Chorus
Standard Tuning
Tabbed by Big Al

EXACTLY RIGHT!!!
(Sounds good w/ distortion)

Intro

E--------------------------------------------------------------------
B--------------------------------------------------------------------
G-------------2------------------------------------------------------
D-------------2--(Play 11 times) -------------------------------------
A-0-3-0-5-0-3-0------------------------------------------------------
E--------------------------------------------------------------------

First Verse (Do same thing after chorus)
[ Tab from: http://www.guitartabs.cc/tabs/a/ac_dc/whole_lotta_rosie_tab_ver_5.html ]
E--------------------------------------------3-3-3-------------------
B--------------------------------------------2-2-2-------------------
G---------------2-2-2------------------------3-3-3-------------------
D---------------2-2-2-(Play 11 Times)--------0-0-0-------------------
A-0-3-0-5-0-3-0-0-0-0------------------3-3-3-------------------------
E--------------------------------------1-1-1-------------------------

Chorus

E----3-----3-----3--3-3-3-3-3-----------------------------------------
B-2--0--2--0--2--0--0-2-0-2-0-----------------------------------------
G-2--0--2--0--2--0--0-3-0-3-0-----2-----------------------------------
D-2--0--2--0--2--0--0-0-0-0-0-----2-----------------------------------
A-0--2--0--2--0--2--2-0-2-0-2-----0-----------------------------------
E----3-----3-----3--3-3-3-3-3--4--------------------------------------
Comments