Ac Dc - Who Made Who Chords & Tabs

 

Who Made Who Chords & Tabs

Ac Dc Chords & Tabs

Version: 4 Type: Tab 0 ratings
1 star 2 stars 3 stars 4 stars 5 stars
comments

Who Made Who Tab

 Intro:
|--------------------|--------------------|--------------------|
|--------------------|--------------------|--------------------|
|----7----7----------|----7----7----------|----7----7----------|
|----7----7----------|----7----7----------|----7----7----------|
|----5----5----------|----5----5----------|----5----5----------|
|--------------------|--------------------|--------------------|

                     the video games says play me
|--------------------|--------------------|--------------------|
|--------------------|--------------------|--------------------|
|----7----7----------|----7----7----------|----7----7----------|
|----7----7----------|----7----7----------|----7----7----------|
|----5----5----------|----5----5----------|----5----5----------|
|--------------------|--------------------|--------------------|

Face it on a level But it take you every time,on a one on one
|--------------------|--------------------|--------------------|
|--------------------|--------------------|--------------------|
|----7----7----------|----7----7----------|----4----4----------|
|----7----7----------|----7----7----------|----4----4----------|
|----5----5----------|----5----5----------|----2----2----------|
|--------------------|--------------------|--------------------|

                      feel it runnin' down your spine
|--------------------|--------------------|--------------------|
|--------------------|--------------------|--------------------|
|----4----4----------|--------------------|--------------------|
|----4----4----------|----7----7----------|----7----7----------|
|----2----2----------|----7----7----------|----7----7----------|
|--------------------|----5----5----------|----5----5----------|

 Nothin' gonna save your one last dime 'Cause it own you
|--------------------|--------------------|--------------------|
|--------------------|--------------------|--------------------|
|--------------------|--------------------|----7----7----------|
|----7----7----------|----7----7----------|----7----7----------|
|----7----7----------|----7----7----------|----5----5----------|
|----5----5----------|----5----5----------|--------------------|

                      through and through
|--------------------|--------------------|--------------------|
|--------------------|--------------------|--------------------|
|----7----7----------|----7----7----------|----7----7----------|
|----7----7----------|----7----7----------|----7----7----------|
|----5----5----------|----5----5----------|----5----5----------|
|--------------------|--------------------|--------------------|


 from 2nd verse Angus comes in:
                   the databank...
|----------10---------|----------------------------------|
|----------10---------|----------------------------------|
|----------------7\---|----------------------------------|
|---------------------|--4-0-5-0-7-0-5-0-4-0-5-0-7-0-5-0-|
|---------------------|----------------------------------|
|---------------------|----------------------------------|

|----------------------------------|----------------------------------|
|----------------------------------|----------------------------------|
|----------------------------------|----------------------------------|
|--4-0-5-0-7-0-5-0-4-0-5-0-7-0-5-0-|--4-0-5-0-7-0-5-0-4-0-5-0-7-0-5-0-|
|----------------------------------|----------------------------------|
|----------------------------------|----------------------------------|

|----------------------------------|----------------------------------|
|----------------------------------|----------------------------------|
|----------------------------------|----------------------------------|
|--4-0-5-0-7-0-5-0-4-0-5-0-7-0-5-0-|----------------------------------|
|----------------------------------|--6-2-7-2-9-2-7-2-6-2-7-2-9-2-7-2-|
|----------------------------------|----------------------------------|

|----------------------------------|----------------------------------|
|----------------------------------|----------------------------------|
|----------------------------------|----------------------------------|
|----------------------------------|----------------------------------|
|--6-2-7-2-9-2-7-2-6-2-7-2-9-2-7-0-|--4-0-5-0-7-0-5-0-4-0-5-0-7-0-5-0-|
|----------------------------------|----------------------------------|

|----------------------------------|----------------------------------|
|----------------------------------|----------------------------------|
|----------------------------------|----------------------------------|
|----------------------------------|----------------------------------|
|--4-0-5-0-7-0-5-0-4-0-5-0-7-0-5-0-|--4-0-5-0-7-0-5-0-4-0-5-0-7-0-5-0-|
|----------------------------------|----------------------------------|

|----------------------------------|----------------------------------|
|----------------------------------|----------------------------------|
|----------------------------------|----------------------------------|
|----------------------------------|--4-0-5-0-7-0-5-0-4-0-5-0-7-0-5-0-|
|--4-0-5-0-7-0-5-0-4-0-5-0-7-0-5-0-|----------------------------------|
|----------------------------------|----------------------------------|

|----------------------------------|----------------------------------|
|----------------------------------|----------------------------------|
|----------------------------------|----------------------------------|
|--4-0-5-0-7-0-5-0-4-0-5-0-7-0-5-0-|--4-0-5-0-7-0-5-0-4-0-5-0-7-0-5-0-|
|----------------------------------|----------------------------------|
|----------------------------------|----------------------------------|

                                    who made who        who
|----------------------------------|-----------------------|
|----------------------------------|----------3------------|
|----------------------------------|-----2---------2-------|
|--4-0-5-0-7-0-5-0-4-0-5-0-7-0-5-0-|--4-----------------5--|
|----------------------------------|-----------------------|
|----------------------------------|-----------------------|

   made you             who made who           ain't nobody told you
|---------------------|-----------------------|---------------------|
|---------3-----------|----------3------------|---------3-----------|
|----2---------2------|-----2---------2-------|----2---------2------|
|---------------------|--4-----------------5--|---------------------|
|---------------------|-----------------------|---------------------|
|---------------------|-----------------------|---------------------|
[ Tab from: http://www.guitartabs.cc/tabs/a/ac_dc/who_made_who_tab_ver_4.html ]
 who made who       who made you               if you made them...
|-----------------------|---------------------|-----------------------|
|----------3------------|---------3-----------|----------3------------|
|-----2---------2-------|----2---------2------|-----2---------2-------|
|--4-----------------5--|---------------------|--4-----------------5--|
|-----------------------|---------------------|-----------------------|
|-----------------------|---------------------|-----------------------|

              who made  who
|---------------------|--------------------|--------------------|
|---------3-----------|--2------3----------|--3------2----------|
|----2---------2------|--2------2----------|--2------2----------|
|---------------------|--2------5----------|--4------2----------|
|---------------------|--0------0----------|--0------0----------|
|---------------------|--------------------|--------------------|
                                  who made who
|---------------------|------------------|-----------------------|
|--3------3------2----|------------------|----------3------------|
|--2------2------2----|------------------|-----2---------2-------|
|--5------4------2----|------------------|--4-----------------5--|
|--0------0------0----|------------------|-----------------------|
|---------------------|------------------|-----------------------|
           who turned the screw                            to solo:
|--------------------|-----------------------|--------------------|
|---------3----------|----------3------------|---------3~---------|
|----2---------------|-----2---------2-------|----2----2~---------|
|--------------------|--4-----------------5--|--------------------|
|--------------------|-----------------------|--------------------|
|--------------------|-----------------------|--------------------|


 Malcolm on solo part:
|----------------------|-----------------------|----------------------|
|----------------------|-----------------------|----------------------|
|----------------------|-----------------------|----------------------|
|--4----4----4----4----|--4----4----4--4--4----|--4----4----4----4----|
|--2----2----2----2----|--2----2----2--0--2----|--2----2----2----2----|
|----------------------|-----------------------|----------------------|

|-----------------------|--------------------|--------------------|
|-----------------------|--2------3----------|--3------2----------|
|-----------------------|--2------2----------|--2------2----------|
|--4----4----4--4--4----|--2------5----------|--4------2----------|
|--2----2----2--0--2----|--0------0----------|--0------0----------|
|-----------------------|--------------------|--------------------|

                                              to verse:
|--------------------------|--------------------------|
|--------------------------|--------------------------|
|--------------------------|--------------------------|
|--5--5--5--5--5--5--5--5--|--5--5--5--5--5--5--5--5--|
|--5--5--5--5--5--5--5--5--|--5--5--5--5--5--5--5--5--|
|--3--3--3--3--3--3--3--3--|--3--3--3--3--3--3--3--3--|


 Angus on last verse:
 Sattelite...                                  get it...
|-----------------------|---------------------|-----------------------|
|----------3------------|---------3-----------|----------3------------|
|-----2---------2-------|----2---------2------|-----2---------2-------|
|--4-----------------5--|---------------------|--4-----------------5--|
|-----------------------|---------------------|-----------------------|
|-----------------------|---------------------|-----------------------|

                       dynamo...
|---------------------|-----------------------|---------------------|
|---------3-----------|----------3------------|---------3-----------|
|----2---------2------|-----2---------2-------|----2---------2------|
|---------------------|--4-----------------4--|---------------------|
|---------------------|-----------------------|---------------------|
|---------------------|-----------------------|---------------------|

  feel it...                                    runnin'...
|-----------------------|---------------------|-----------------------|
|----------3------------|---------3-----------|----------3------------|
|-----2---------2-------|----2---------2------|-----2---------2-------|
|--5-----------------5--|---------------------|--5-----------------5--|
|-----------------------|---------------------|-----------------------|
|-----------------------|---------------------|-----------------------|

                        eight bit town...
|---------------------|-----------------------|---------------------|
|---------3-----------|----------3------------|---------3-----------|
|----2---------2------|-----2---------2-------|----2---------2------|
|---------------------|--4-----------------5--|---------------------|
|---------------------|-----------------------|---------------------|
|---------------------|-----------------------|---------------------|
                                               chorus as usual:
|-----------------------|---------------------|-----------------------|
|----------3------------|---------3-----------|----------3------------|
|-----2---------2-------|----2---------2------|-----2---------2-------|
|--4-----------------5--|---------------------|--4-----------------5--|
|-----------------------|---------------------|-----------------------|
|-----------------------|---------------------|-----------------------|


 end:
|---------------------|-------------------|---------------------|
|----------------3----|-------------------|---------3-----------|
|--2------0------2----|----2--------------|--0------2------2----|
|--2------0------0----|----2--------------|--0------0------2----|
|--0------------------|----0--------------|----------------0----|
|---------3-----------|-------------------|--3------------------|

|------------------|---------------------|-------------------|
|------------------|----------------3----|-------------------|
|------------------|--2------0------2----|----2--------------|
|------------------|--2------0------0----|----2--------------|
|------------------|--0------------------|----0--------------|
|------------------|---------3-----------|-------------------|

|---------------------|------------------|
|---------3-----------|------------------|
|--0------2------2----|------------------|
|--0------0------2----|------------------|
|----------------0----|------------------|
|--3------------------|------------------|
Comments