Ac Dc - Who Made Who Chords & Tabs

 

Who Made Who Chords & Tabs

Ac Dc Chords & Tabs

Version: 3 Type: Tab 0 ratings
1 star 2 stars 3 stars 4 stars 5 stars
comments

Who Made Who Tab

   
I tryied all the tabs for this song and none of them were right...heres the real one!
AC/DC KICKS @$$

Key:
h  = hammeron
p  = pulloff
t  = tap with right hand
v  = hand vibrato
\\ = Slide
() = Ghost Note

Intro:
--------------------------------------    ------------------------------|
--------------------------------------    ------------------------------|
----7--7-----7--7-----7--7-----7--7---(x2)------------------------------|
----7--7-----7--7-----7--7-----7--7---    -----7--7------7--7-----------|  (x1)
----5--5-----5--5-----5--5-----5--5---    -----7--7------7--7-----------|
--------------------------------------    -----5--5------5--5-----------|
then first bar of intro then

Riff 1:
--10----------               -------------------------------------------|
--10----------               -------------------------------------------|
--12----14\\--  (x1)         -------------------------------------------|
--------------  this first-> 0h4p0h5p0h7p0h5(x8)------------------------|
--------------        then-> t6p2-t7p2-t9p2-t7p2(x4)-0h4p0h5p0h7p0h-----|5(x8)
--------------               -------------------------------------------|

-------------------|
-------------------|
-------------------|
0h4p0h5p0h7p0(x8)--
-------------------|
-------------------|

Riff 2:
-----------------------------------|
--------3-------------------3------|
-----2-------2---------2--------2--|
--4------------4--5----------------|  (x4)
-----------------------------------|
-----------------------------------|

Riff 3:
----------------------------------------------|
---2----3----3---2-------3---3-----2-----2--2-|
---2----2----2---2-------2---2-----2-----2--2-|
---2----5----4---2-------5---4-----2-----2--2-|
---0----0----0---0-------0---0-----0-----0--0-|
----------------------------------------------|

Riff 2 (again but only twice)

Solo:
--t14p7h10--t14p7h10----------t14p7h10----------t14p7h10---------t14p7h10-|
---------------------t12p10p7----------t12p10p7----------t12p10p7---------|
--------------------------------------------------------------------------|
--------------------------------------------------------------------------|
--------------------------------------------------------------------------|
--------------------------------------------------------------------------|
[ Tab from: http://www.guitartabs.cc/tabs/a/ac_dc/who_made_who_tab_ver_3.html ]
---------t14p7h10-----------t14p7h10----------t14p7h10----------t14p7h10-|
t12p10p7----------t12p10p7-----------t12p10p7----------t12p10p7----------|
-------------------------------------------------------------------------|
-------------------------------------------------------------------------|
-------------------------------------------------------------------------|
-------------------------------------------------------------------------|

-----------------------------------------------------------------------------|
t12p10p7---------------8h5---8h5---8h5---8h5---------------------------------|
-------------------6-------6-----6-----6-----6h7vvvvvvvv-7--7--7h6--7--7-----|ls9v
-----------------------------------------------------------------------------|
-----------------------------------------------------------------------------|
-----------------------------------------------------------------------------|

-------------------------t10p6p3-t10p6p3-t10p6p3-t10p6p3-t12p6p3-t12p6p3-|
-------------------------------------------------------------------------|
vvvvvvvv-----\\\---------------------------------------------------------|
-------------------------------------------------------------------------|
------------------(10)\\-------------------------------------------------|
-------------------------------------------------------------------------|

t12p6p3-t13p6p3-t13p6p3-t13p6p3-t13p6p3-t13p6p3-t13p6p3-t13p6p3-t13p6p3-|
------------------------------------------------------------------------|
------------------------------------------------------------------------|
------------------------------------------------------------------------|
------------------------------------------------------------------------|
------------------------------------------------------------------------|

t13p6p3-t13p6p3---|
------------------|
------------------|
-----END SOLO-----|
------------------|
------------------|

Riff 4:
----------------------------------------------------------------------|
---------3-------------3-----------3----------3------------3----------|
-----2-------2------2-----2-----2-----2----2-----2-----2-------2------|
---4--------------4-----------5---------5-----------5--------------5--|
----------------------------------------------------------------------|
----------------------------------------------------------------------|

------------------|
-----3------------|
-2-------2-----2--|
------------5-----|
------------------|
------------------|

(Riff 2)
(Riff 3)

Riff 5:
----------------------------------------------------|
---2----3----3---2------3----3----2----2----2----2--|
---2----2----2---2------2----2----2----2----2----2--|
---2----5----4---2------5----4----2----2----2----2--|
---0----0----0---0------0----0----0----0----0----0--|
----------------------------------------------------|

(Riff 2)

-----------------------|
-----------------------|
-----------------------|
-----------------------|
0h4p0h5p0h7p0h5p0(x16)-

k there ya go this tab is 100% right
e-mail me at Mephisto1_666@hotmail.com if u have any complaints, questions,or anything.
Comments