Ac Dc - Who Made Who Chords & Tabs

 

Who Made Who Chords & Tabs

Ac Dc Chords & Tabs

Version: 1 Type: Bass Tab 0 ratings
1 star 2 stars 3 stars 4 stars 5 stars
comments

Who Made Who Bass Tab

WHO MADE WHO
AC/DC
STANDARD TUNING
EADG

INTRO
G-----------------|-----------------|-----------------|-----------------|
D-----------------|-----------------|-----------------|-----------------|
A-2-2-2-2-2-2-2-2-|-2-2-2-2-2-2-2-2-|-2-2-2-2-2-2-2-2-|-2-2-2-2-2-2-2-2-|
E-----------------|-----------------|-----------------|-----------------|

G-----------------|-----------------|-----------------|-----------------|
D-----------------|-----------------|-----------------|-----------------|
A-2-2-2-2-2-2-2-2-|-2-2-2-2-2-2-2-2-|-2-2-2-2-2-2-2-2-|-2-2-2-2-2-2-2-2-|
E-----------------|-----------------|-----------------|-----------------|
____________________________________________________________________________
VERSE
G-----------------|-----------------|-----------------|-----------------|
D-----------------|-----------------|-----------------|-----------------|
A-2-2-2-2-2-2-2-2-|-2-2-2-2-2-2-2-2-|-2-2-2-2-2-2-2-2-|-2-2-2-2-2-2-2-2-|
E-----------------|-----------------|-----------------|-----------------|
-MALCOM(RYTHM GUITAR) COMES IN-

G-----------------|-----------------|-----------------|-----------------|
D-----------------|-----------------|-----------------|-----------------|
A-2-2-2-2-2-2-2-2-|-2-2-2-2-2-2-2-2-|-2-2-2-2-2-2-2-2-|-2-2-2-2-2-2-2-2-|
E-----------------|-----------------|-----------------|-----------------|

G-----------------|-----------------|-----------------|-----------------|
D-----------------|-----------------|-----------------|-----------------|
A-2-2-2-2-2-2-2-2-|-1-1-1-1-1-1-1-1-|-1-1-1-1-1-1-1-1-|-0-0-0-0-0-0-0-0-|
E-----------------|-----------------|-----------------|-----------------|

G-----------------|-----------------|-----------------|-----------------|
D-----------------|-----------------|-----------------|-----------------|
A-0-0-0-0-0-0-0-0-|-0-0-0-0-0-0-0-0-|-0-0-0-0-0-0-0-0-|-1-1-1-1-1-1-1-1-|
E-----------------|-----------------|-----------------|-----------------|
[ Tab from: http://www.guitartabs.cc/tabs/a/ac_dc/who_made_who_btab.html ]
G-----------------|-----------------|-----------------|------------------|
D-----------------|-----------------|-----------------|------------------|
A-1-1-1-1-1-1-1-1-|-1-1-1-1-1-1-1-1-|-1-1-1-1-1-1-1-1-|------------------|
E-----------------|-----------------|-----------------|---REPEAT VERSE---|
                                                -ANGUS(LEAD GUITAR) COMES IN
CHORUS
G-----------------|-----------------|-----------------|-------------------|
D-----------------|-----------------|-----------------|-------------------|
A-2-2-2-2-2-2-2-2-|-2-2-2-2-2-2-2-2-|-2-2-2-2-2-2-2-2-|-2-2-2-2-2-2-2-2-2-|
E-----------------|-----------------|-----------------|-------------------|
 WHO MADE WHO...                      WHO MADE YOU...
G-----------------|-----------------|-----------------|-------------------|
D-----------------|-----------------|-----------------|-------------------|
A-2-2-2-2-2-2-2-2-|-2-2-2-2-2-2-2-2-|-2-2-2-2-2-2-2-2-|-2-2-2-2-2-2-2-2-2-|
E-----------------|-----------------|-----------------|-------------------|

G-----------------|-----------------|-----------------|-------------------|
D-----------------|-----------------|-----------------|-------------------|
A-2-2-2-2-2-2-2-5-|-----------------|-----------------|-------------------|
E-----------------|-4-4-4-4-4-4-4-4-|-4-4-4-4-4-4-4-4-|-4-4-4-4-4-4-4-4-4-|
                    WHO MADE WHO.....
G-----------------|-----------------|-----------------|-------------------|
D-----------------|-----------------|-----------------|-------------------|
A-----------------|-2-2-2-2-2-2-2-2-|-2-2-2-2-2-2-2-2-|-2-2-2-2-2-2-2-2-2-|
E-4-4-4-4-4-4-4-4-|-----------------|-----------------|-------------------|

G-----------------|-----------|
D-----------------|-----------|
A-2-2-2-2-2-2-2-2-|-3-3-4-5---|
E-----------------|-----------|

GUITAR SOLO
G-----------------|-----------------|---------|  |-----------------|
D-----------------|-----------------|---------|  |-----------------|
A-3-3-3-3-3-3-3-3-|-2-2-2-2-2-2-2-2-|-0-1-0-1-|x2|-2-2-2-2-2-2-2-2-|
E-----------------|-----------------|---------|  |-----------------|

G-----------------|------------------|
D-----------------|------------------|
A-2-2-2-2-2-2-2-2-|------------------|
E-----------------|-4-4-4-4-4-4-4-4-4|

VERSE
CHORUS(DIFFERENT ENDING TO FIRST CHORUS)--------------|
                                                      |
                                                     \ /
  
AT THE END OF THIS CHORUS DONT PLAY...          PLAY...                 x2
G---------------------------------|-----------||-------------|-----------||
D---------------------------------|-----------||-------------|-----------||
A---------------------------------|-3-3-4-5---||-3--1--2--0--|-3--1--2---||
E---------------------------------|-----------||-------------|-----------||

G----------|-------|-------|-------|----------------|-----------------|
D----------|-------|-------|-------|----------------|-----------------|
A----------|-2-----|-2-----|-2-----|-2--2-2-2-2-2-2-|-2-2-2-2-2-2-2-2-|
E----------|-------|-------|-------|----------------|-----------------|
             who!!! who made you

G-----------------|-----------------|-----------------|-----------------|
D-----------------|-----------------|-----------------|-----------------|
A-2-2-2-2-2-2-2-2-|-----------------|-----------------|-----------------|
E-----------------|-4-4-4-4-4-4-4-4-|-4-4-4-4-4-4-4-4-|-4-4-4-4-4-4-4-4-|

G--------|------| I TABED THIS FROM AC/DC LIVE SO IT MIGHT BE A LITTLE 
D--------|------| DIFFERENT TO THE STUDIO RECORDED VERSION. THANKS....
A-1------|-2----|
E--------|------|
Comments