Ac Dc - Whats Next To The Moon Chords & Tabs

 

Whats Next To The Moon Chords & Tabs

Ac Dc Chords & Tabs

Version: 2 Type: Tab 0 ratings
1 star 2 stars 3 stars 4 stars 5 stars
comments

Whats Next To The Moon Tab

Intro

e|-------------------------------------------------------------------------|
B|-------------------------------------------------------------------------|
G|-------------------------------------------------------------------------|
D|0---0-2------------------------------------------------------------------|
A|-0--0-2------------------------------------------------------------------|
E|------0------------------------------------------------------------------|

(Play 4x)

Verse

e|------------------------------------------------------------------------|
B|------------------------------------------------------------------------|
G|-----------------------------------0--0-2---0--0-2----------------------|
D|0--0-2---0--0-2---0--0-2---0--0-2---0-0-2----0-0-2--0--0-2---0--0-2-----|
A|-0-0-2----0-0-2----0-0-2----0-0-2-------0-------0----0-0-2----0-0-2-----|
E|-----0------0-0--------0--------0------------------------0--------0-----|

Chorus
[ Tab from: http://www.guitartabs.cc/tabs/a/ac_dc/whats_next_to_the_moon_tab_ver_2.html ]
e|-------------------------------------------------------------------------|
B|-------------------------------------------------------------------------|
G|-------------------------------------------------------------------------|
D|-------------------------------------------------------------------------|
A|---7-7-7-7-2-------------------------------------------------------------|
E|0--4-5-5-4-0-------------------------------------------------------------|


Bridge/Ending

e|-------------------------------------------------------------------------|
B|-------------------------------------------------------------------------|
G|-------------------------------------------------------------------------|
D|----2------0--4-2-0------------------------------------------------------|
A|--2------0---------------------------------------------------------------|
E|0------0-----------------------------------------------------------------|


Order of song:

1.Intro(play riff 4x)
2.Verse(1x)
3.Chorus(4x)
4.Verse(1x)
5.Chorus(4x)
6.Bridge(4x)
7.Chorus(2x)
8.Verse(1x)
9.Chorus(8x)
10.Bridge(play till fade)


Sorry, no solo.


tabbed by Catherine Bromhead
Comments