Ac Dc - What Do You Do For The Money Honey Chords & Tabs

 

What Do You Do For The Money Honey Chords & Tabs

Ac Dc Chords & Tabs

Version: 1 Type: Tab 2 ratings
1 star 2 stars 3 stars 4 stars 5 stars
comments

What Do You Do For The Money Honey Tab

   
= after note = vibrato
^ after note = heavy vibrato
\ = slide down
/ = slide up
+ = tap
h = hammer
p = pull
n = natural harmonic
s = pinching harmonic (squeal)
* = tremolo pick
t = trill
b = bend
|-3-| = triplet


Riff A

E -0---3------2-2-0-0----
B -0---3------3-3-2-2----
G -1---0------2-2-2-2----
D -2---0------0-0-2-2----
A -2---2----------0-0----
E -0---3-----------------

Riff b

E -------------------------------------------------------3--2----
B -------------------------------------------------------3--3----
G -------------------------------------------------------0--2----
D -9-----7-------7---------------7-9-----7-------7-------0--0--7-
A -7-----5-------4-------5---5---5-7-----5-------4-------3--0--5-
E -0-0-0---0-0-0---0-0-0-3-0-2-0---0-0-0---0-0-0---0-0-0-3--2----

Riff C

E -0---2----0----3-2-2-0---2----0-0-0-0-0-0-0-0-0-0-0-0-0-0-0-0-
B -0---3----2----3-3-3-0---3----2-2-2-2-2-2-2-2-2-2-2-2-2-2-2-2-
G -1---2----2----0-2-2-1---2----2-2-2-2-2-2-2-2-2-2-2-2-2-2-2-2-
D -2---0----2----0-0-0-2---0----2-2-2-2-2-2-2-2-2-2-2-2-2-2-2-2-
A -2--------4----2-0---2--------2-2-2-2-2-2-2-2-2-2-2-2-2-2-2-2-
E -0-------------3-2---0----------------------------------------

Riff D
[ Tab from: http://www.guitartabs.cc/tabs/a/ac_dc/what_do_you_do_for_the_money_honey_tab.html ]
E -0---2---0--------2-0---2----0----3-2-2-0---2----0----3-2-2-0---2----0-0-0-0-0-0-0-0-0-0-0-0-0-0-0-0-
B -0---3---2--------3-0---3----2----3-3-3-0---3----2----3-3-3-0---3----2-2-2-2-2-2-2-2-2-2-2-2-2-2-2-2-
G -1---2---2--------2-1---2----2----0-2-2-1---2----2----0-2-2-1---2----2-2-2-2-2-2-2-2-2-2-2-2-2-2-2-2-
D -2---0---2--------0-2---0----2----0-0-0-2---0----2----0-0-0-2---0----2-2-2-2-2-2-2-2-2-2-2-2-2-2-2-2-
A -2-------4----5-5---2--------4----2-0---1--------4----2-0---2--------0-0-0-0-0-0-0-0-0-0-0-0-0-0-0-0-
E -0------------3-2---0-------------3-2---0-------------3-2---0----------------------------------------

Riff E

E ---------------------
B ---------------------
G -9----9----9----9----
D -9----9----9----9----
A -7----7----7----7----
E ---------------------

Riff F

E -0----2----0--0----2----0--
B -2----3----2--2----3----2--
G -2----2----2--2----2----2--
D -2----0----2--2----0----2--
A -0--3----3-0--0--3----3-0--
E ---------------------------

Riff G

E -0------3-2-0-0------3-2-0-
B -0------3-3-0-0------3-3-0-
G -1------0-2-0-1------0-2-0-
D -2------0-0-0-2------0-0-0-
A -2------2-0-0-2------2-0-0-
E -0------3-2-0-0------3-2-0-

Riff h


E -0---3- -2-0- -0-
B -0---3- -3-2- -0-
G -1---0- -2-2- -1-
D -2---0- -0-2- -2-
A -2---2- ---0- -2-
E -0---3- ----- -0-

Order

Riff A x 4
Riff B x 4
Riff C x 1
Riff A x 4
Riff C x 4
Riff B x 3
Riff C x 1
Riff A x 4
Riff E x 1
Riff F x 4
Riff G x 1
Riff D x 1
Riff A x 7
Riff H x 1
Comments