Ac Dc - What Do You Do For Money Honey Chords & Tabs

 

What Do You Do For Money Honey Chords & Tabs

Ac Dc Chords & Tabs

Version: 3 Type: Tab 0 ratings
1 star 2 stars 3 stars 4 stars 5 stars
comments

What Do You Do For Money Honey Tab

   
there arent any tabs of this song with the solo, so heres the right one with the solo.
so crank up the volume and ROCK ON!


Gtr I (E A D G B E) - 'Malcolm Young - Rhythm w/dist'
Gtr II (E A D G B E) - 'Angus Young - Rhythm / Lead w/dist'

Intro
  Q=126
 4/4
  Gtrs I, II          Gtr I       Gtrs I, II            Gtr I
  Q.   E +H       +E   E E E H      Q.   E +H       +E   E E E H
|------3-(3)----|-(3)--2-2--------|------3-(3)----|-(3)--2-2--------|
|------3-(3)----|-(3)--3-3-2-2----|------3-(3)----|-(3)--3-3-2-2----|
|------0-(0)----|-(0)--2-2-2-2----|------0-(0)----|-(0)--2-2-2-2----|
|-2----0-(0)----|-(0)--0-0-2-2----|-2----0-(0)----|-(0)--0-0-2-2----|
|-2-------------|----------0-0----|-2-------------|----------0-0----|
|-0----3-(3)----|-(3)-------------|-0----3-(3)----|-(3)-------------|
|-Rhy Fig 1                                           end Rhy Fig 1-|

  Gtrs I, II          Gtr I       Gtrs I, II
  Q.   E +H       +E   E E E H      Q.   E +H       +W
|------3-(3)----|-(3)--2-2--------|------3-(3)----|-(3)----|
|------3-(3)----|-(3)--3-3-2-2----|------3-(3)----|-(3)----|
|------0-(0)----|-(0)--2-2-2-2----|------0-(0)----|-(0)----|
|-2----0-(0)----|-(0)--0-0-2-2----|-2----0-(0)----|-(0)----|
|-2-------------|----------0-0----|-2-------------|--------|
|-0----3-(3)----|-(3)-------------|-0----3-(3)----|-(3)----|


  E Q  E Q  E E   Q  E E E E E E   E Q  E Q  E E   Q  E E +E  Q  E
|---------------|----------------|---------------|------3-(3)-2------||
|---------------|------3---3-----|---------------|------3-(3)-3------||
|-9----7------7-|------0---2---7s|=9----7------7-|------0-(0)-2--7s==||
|-9----7------7-|------0---0---7s|=9----7------7-|------0-(0)-0--7s==||
|-7----5------4-|--------------5s|=7----5------4-|---------------5s==||
|-0-------------|------3---2-----|---------------|------3-(3)-2--0---||
|-Rhy Fig 2                                            end Rhy Fig 2-|

   Verses
||--
||o-
||-- Rhy Fig 2
||--
||o-
||--


  E Q  E Q  E E   Q  E E E E E E   E Q  E Q  E E   E Q.   Q  Q
|---------------|----------------|---------------|---------------|
|---------------|------3---3-----|---------------|---------------|
|-9----7------6-|------0---2---7s|=9----7------6-|---------------|
|-9----7------7-|------0---0---7s|=9----7------7-|---------------|
|-7----5------4-|--------------5s|=7----5------4-|---------------|
|-0-------------|------3---2---0-|-0-------------|---0----0--0---|
|-Rhy Fig 3                                        end Rhy Fig 3-|

Rhy Fig 3


  Q.   E +Q.   E   +Q   E E +E  Q  E   Q.   E +Q.   E
|----------------|--------3-(3)-2----|----------------|
|----------------|--------3-(3)-3----|----------------|
|-9----7-(7)---7-|-(7)----0-(0)-2----|-9----7-(7)---2-|
|-9----7-(7)---7-|-(7)----0-(0)-0----|-9----7-(7)---2-|
|-7----5-(5)---4-|-(4)---------------|-7----5-(5)---0-|
|-0--------------|------3-3-(3)-2--0-|-0--------------|
|-Rhy Fig 4            end Rhy Fig 4-|-Rhy Fig 5

  +E  E E E E E E E   E E E E E E E E
|-------------------|------------------||
|-------------------|------------------||
|-(2)-2-2-2-2-2-2-2-|-2-2-2-2-2-2-2-2--||
|-(2)-2-2-2-2-2-2-2-|-2-2-2-2-2-2-2-2--||
|-(0)-0-0-0-0-0-0-0-|-0-0-0-0-0-0-0-0--||
|-------------------|------------------||
                         end Rhy Fig 5-|

 Chorus
  Rhy Fig 1


  Q.   E +H       +E  E E E H      Q.   E +Q   Q    E E E E H
|------3-(3)----|-(3)-2-2--------|------3-(3)-----|---2-2--------|
|------3-(3)----|-(3)-3-3-2-2----|------3-(3)-----|---3-3-2-2----|
|------0-(0)----|-(0)-2-2-2-2----|------0-(0)-----|---2-2-2-2----|
|-2----0-(0)----|-(0)-0-0-2-2----|-2----0-(0)-----|---0-0-2-2----|
|-2-------------|---------0-0----|-2--------------|-------0-0----|
|-0----3-(3)----|-(3)------------|-0----3-(3)-----|--------------|


  1.
w/Rhy Fig 4 x2
  Gtr II
    ~~~~~~~      ~
  A Q.   E +Q.   E   +Q.    E +E  Q  E
|------------------|-------------------|
|------------------|-------------------|
|-7h9----7-(7)---6-|-(6)---------------|
|------------------|--------5-(5)-4----|
|------------------|-----------------7-|
|------------------|-------------------|

    ~~~~~~~      ~
  A Q.   E +Q.   E   +Q.    E +E  Q  E
|------------------|---------------------||
|------------------|--------------------o||
|-7h9----7-(7)---6-|-(6)-----------------||
|------------------|--------5-(5)-4------||
|------------------|-----------------7--o||
|------------------|---------------------||


  2.
  Gtr I                                           Gtr II
  E E Q  H      E E Q  H      W          Q   Q  Q  E E
|-------------|-------------|----------|--------------------||
|-------------|-------------|----------|-------------8b10===||
|-9-----------|-9-----------|-9--------|-9/-----------------||
|-9-----------|-9-----------|-9--------|-9/-----------------||
|-7-----------|-7-----------|-7--------|-7/-----------------||
|-0-----------|-0-----------|-0--------|-0/-----------------||


 Guitar Solo
  Gtr II
   ~~~~                                ~~~                  ~
                         |-3-|
  +Q      S  S S S  S  S S S S S E.   +Q    +E.   S  S  S E Q
|---------5-------------------------|--------------------------|
|-(8)r-------5-8-7--5---------------|--------------------------|
|----------------------8-7p5---7----|---------------------5----|
|----------------------------7---7--|-(7)---(7)---0h=7p=0---7--|
|-----------------------------------|--------------------------|
|-----------------------------------|--------------------------|
|
| Gtr I
|  E.  S +E    E   +E    E     Q       E. S +E  E   +E    E Q
|-----------------------------------|--------------------------|
|-----------------------------------|--------------------------|
|--------------2---(2)--------------|-----------2---(2)--------|
|--2-----------0---(0)---------2----|--2--------0---(0)-----2--|
|--0---3-(3)-------------3-----0----|--0--3-(3)-----------3-0--|
|-----------------------------------|--------------------------|
|-Rhy Fig 6                                      end Rhy Fig 6-|

w/Rhy Fig 6 x3
                                                                     ~~~~
                                                      |-3-|
  S  S S S +E  S S  S  E.   +S  S S S   S S S S  S  S S S S  Q      +Q
|-------------------------------------|-----------------------------------|
|-5------------5----------------------|-----------------------------------|
|-5------------5----------------------|-----------------------------------|
|----7-7-7-(7)---7--7--7----(7)-5h7p5-|-4h5p4-2h=4--2-0h2p0---------------|
|-------------------------------------|----------------------3b4====(3)r--|
|-------------------------------------|-----------------------------------|


       ~                           ~~~~
  E  S S +E.   S  S  S    +S  +S  +Q      S  S S S  S  S S S  S  S S S S S S S
|---------------------------------------|--------------------------------------|
|--------------5--7--7b8==(7)-(7)-(7)r--|-8--8-8-7--7--7-8-8--8--7-7-5-5-5-5-5-|
|--------------5--7--7b9==(7)-(7)-(7)r--|-9--9-9-7--7--7-9-9--9--7-7-6-6-6-6-6-|
|-5--7-7-(7)----------------------------|--------------------------------------|
|---------------------------------------|--------------------------------------|
|---------------------------------------|--------------------------------------|


  S  S S S  S  S S S  S  S S S S S S S   S  S S S  S  S S S  S  S S S S S S S
|--------------------------------------|---------------------------------------|
|-5--5-5-7--7--7-8-8--8--7-7-7-5-5-5-5-|-5--5-5-7--7--7-8-8--8--7-7-7-5-5-5-5--|
|-6--6-6-7--7--7-9-9--9--7-7-7-6-6-6-6-|-6--6-6-7--7--7-9-9--9--7-7-7-6-6-6-6--|
|--------------------------------------|---------------------------------------|
|--------------------------------------|---------------------------------------|
|--------------------------------------|---------------------------------------|

[ Tab from: http://www.guitartabs.cc/tabs/a/ac_dc/what_do_you_do_for_money_honey_tab_ver_3.html ]
   TP    TP      TP                    TP   TP      TP
   H     H       Q    E  E +E  Q  E    H    H       Q.   E +E  Q  E
|-------------|----------3-(3)-2--0-|--0----0----|--0----3-(3)-2--0--||
|-15----14----|-12---12\-3-(3)-3--0-|-/5----3----|--2----3-(3)-3--0--||
|-16----14----|-13---13\-0-(0)-2--1-|------------|-------0-(0)-2--1--||
|-------------|----------0-(0)-0--2-|------------|-------0-(0)-0--2--||
|-------------|-------------------2-|------------|----------------2--||
|-------------|----------3-(3)-2--0-|------------|-------3-(3)-2--0--||
|
|  W            +Q.      E +E  Q  E    W           +Q.   E +E  Q  E
|--0----------|-(0)------3-(3)-2--0-|--0---------|-(0)---3-(3)-2--0--||
|--0----------|-(0)------3-(3)-3--0-|--0---------|-(0)---3-(3)-3--0--||
|--1----------|-(1)------0-(0)-2--1-|--1---------|-(1)---0-(0)-2--1--||
|--2----------|-(2)------0-(0)-0--2-|--2---------|-(2)---0-(0)-0--2--||
|--2----------|-(2)---------------2-|--2---------|-(2)------------2--||
|--0----------|-(0)------3-(3)-2--0-|--0---------|-(0)---3-(3)-2--0--||


w/Rhy Fig 4 x3
           ~~~~
   a      +H       +S    S  S  S  S  S  S  S
|-----------------------12-15-12----12-------|
|-15b17==(15)-----(15)r----------15----12-15-|
|--------------------------------------------|
|--------------------------------------------|
|--------------------------------------------|
|--------------------------------------------|


             ~~~~~~~
   S   S  S  S  +E.    +S    E   a      +E   +S    S  a       E
|-----------------------------------------------------------------|
|-----12------------------------------------------15---------15---|
|-14-----12---------------------14b16==(14)-(14)r----14b16==(14)r-|
|-----------14-(14)---(14)\---------------------------------------|
|-----------------------------------------------------------------|
|-----------------------------------------------------------------|


                                       ~~~~~~~
   S   a       E    S  a       E    S  S  +Q    S  S  S  a      +S
|----------------------------------------------12--------------------|
|-15----------15---15---------15---15-------------12-15--------------|
|-----14b16==(14)r----14b16==(14)r----14-(14)-----------14b16==(14)r-|
|--------------------------------------------------------------------|
|--------------------------------------------------------------------|
|--------------------------------------------------------------------|


          |--3--|        |--3--|
   S   S  S  S  S  S  S  S  S  S  +Q     E  a      +E
|------------------------------------------15b17==(15)--|
|-12----------------------------------------------------|
|-----15-14p12----14----12h14p12-(12)\------------------|
|--------------14----14---------------------------------|
|-------------------------------------------------------|
|-------------------------------------------------------|


   +E   +E   Q    E      +E   +S    S      +E
|-(15)r(15)-15---12b14==(12)-(12)r-14b16==(14)r-|
|-----------------------------------------------|
|-----------------------------------------------|
|-----------------------------------------------|
|-----------------------------------------------|
|-----------------------------------------------|


   S      +E    S      +E    S      +S   +Q      E  A      +E
|-14b16==(14)r-14b16==(14)r-14b16==(14)-(14)r\-----15b16==(15)-|
|--------------------------------------------------------------|
|--------------------------------------------------------------|
|--------------------------------------------------------------|
|--------------------------------------------------------------|
|--------------------------------------------------------------|

w/Rhy Fig 5
                    ~~~~~
   +E    E  A      +Q      E   A      +Q    S  S
|-(15)r-12-10b12==(10)r-------22b24==(22)--22-22-|
|------------------------------------------------|
|------------------------------------------------|
|------------------------------------------------|
|------------------------------------------------|
|------------------------------------------------|


                                                  TP    TP   TP  TP
   |---3----|  |---3---|  |---3---|  |---3---|
   E   E    E  E  E    E  E  E    E  E  E    E    Q     Q    Q   E E
|-22--22---22-22-22---22-22-22---22-22-22---22-|-22r---22S==12S==0-0--|
|----------------------------------------------|----------------------|
|----------------------------------------------|----------------------|
|----------------------------------------------|----------------------|
|----------------------------------------------|----------------------|
|----------------------------------------------|----------------------|


   Chorus
   Rhy Fig 1 x3


 Out-Chorus
  Gtr II
                                                                ~~~~
  W                W                a      +Q.     a      +E   +H
|---------------|----------------|------------------------------------|
|---------------|----------------|-15b17==(15)r---15b17==(15)-(15)----|
|---------------|----------------|------------------------------------|
|---------------|----------------|------------------------------------|
|---------------|----------------|------------------------------------|
|---------------|----------------|------------------------------------|
|
| Gtr I
| Q.   E +H       +E  E E E H               Q.             E   +H
|------3-(3)----|-(3)-2-2--------|-------------------------3---(3)----|
|------3-(3)----|-(3)-3-3-2-2----|-------------------------3---(3)----|
|------0-(0)----|-(0)-2-2-2-2----|-------------------------0---(0)----|
|-2----0-(0)----|-(0)-0-0-2-2----|----------2--------------0---(0)----|
|-2-------------|---------0-0----|----------2-------------------------|
|-0----3-(3)----|-(3)------------|----------0--------------3---(3)----|


                                 ~~~~
   +H.        E  E    S   E  S  +H.             +W
|---------------12-|-15--12-12-(12)----------|-(12)----:
|-(15)r------15----|-------------------------|---------:
|------------------|-------------------------|---------:
|------------------|-------------------------|---------:
|------------------|-------------------------|---------:
|------------------|-------------------------|---------:
|
|  +W                 Q.            E +H        +W
|--(3)-------------|--2----------------------|---------:
|--(3)-------------|--3-------------2-(2)----|---------:
|--(0)-------------|--2-------------2-(2)----|--(2)----:
|--(0)-------------|--0-------------2-(2)----|--(2)----:
|------------------|----------------0-(0)----|--(0)----:
|--(3)-------------|-------------------------|---------:


                          |--------7--------|        |--3--|
   a      +E   +E   +Q    S  S  S  S  S  S  S  S  S  S  S  S
|-15b17==(15)r(15)-(15)--12----------------------------------:
|---------------------------15p12-15p12----------------------:
|---------------------------------------15-14-14p12-14p12----:
|---------------------------------------------------------14-:
|------------------------------------------------------------:
|------------------------------------------------------------:
|
|          W
|----------0-------------------------------------------------:
|----------0-------------------------------------------------:
|----------1-------------------------------------------------:
|----------2-------------------------------------------------:
|----------2-------------------------------------------------:
|----------0-------------------------------------------------:


   |-------6-------|  |-----6-----|
   S   S  S  S  S  S  S  S  S  S  E      +E.  S  Q
|--------------------------------------------------------:
|--------------------------------------------------------:
|-14-----12----------------------------------------------:
|-----14----14p12----14----------------------------------:
|-----------------14----14p12-14--------------0----------:
|--------------------------------15b18==(15)rp0-10b12====:
|
| +W
|-(0)----------------------------------------------------:
|-(0)----------------------------------------------------:
|-(1)----------------------------------------------------:
|-(2)----------------------------------------------------:
|-(2)----------------------------------------------------:
|-(0)----------------------------------------------------:


    ~~~~~
   +W            Q   Q  H
|--------------:-------------*|
|--------------:-------------*|
|--------------:-------------*|
|--------------:-x\----------*|
|--------------:-x\----------*|
|-(10)r--------:-------------*|
|
|  +W            Q   Q  H
|--(0)---------:-0-----------*|
|--(0)---------:-0-----------*|
|--(1)---------:-1-----------*|
|--(2)---------:-2-----------*|
|--(2)---------:-2-----------*|
|--(0)---------:-0-----------*|
Comments