Ac Dc - Walk All Over You Chords & Tabs

 

Walk All Over You Chords & Tabs

Ac Dc Chords & Tabs

Version: 1 Type: Bass Tab 0 ratings
1 star 2 stars 3 stars 4 stars 5 stars
comments

Walk All Over You Bass Tab

   
---------------------------------------------------------------------------
			Walk all Over you - AC/DC
---------------------------------------------------------------------------

Tabbed By : KnerkeN
e-mail:

This is maybe AC/DCs best song.
Not 100% correct to the studio version because I figured it out from a live concert.

Tuning: Standard: e A D G

Intro: Angus plays the riff twice then you come in:

G|---------------------------------------------------------------------|
D|---------------------------------------------------------------------|
A|------------5--------------------------------------------------------|x2
E|--0--0-2-3-----5-----------------------------------------------------|

Pre-verse:

G|---------------------------------------------------------------------|
D|---------------------------------------------------------------------|
A|-----------5---5-5---------------------------------------------------|x4
E|---/00--33---5--5-5--------------------------------------------------|

[ Tab from: http://www.guitartabs.cc/tabs/a/ac_dc/walk_all_over_you_btab.html ]
Verse:
G|---------------------------------------------------------------------|
D|---------------------------------------------------------------------|
A|------------------------------5-5-5----------------------------------|x3
E|--0-0-0-0-0-0-0-0--0-2-3-3-3-----------------------------------------|

G|------------------------------------------------------------------------|
D|------------------------------------------------------------------------|
A|------------------------------5-5-5--------5---5---5--------------------|
E|--0-0-0-0-0-0-0-0--0-2-3-3-3---------5---5---5---5----------------------|

Chorus:

G|----------------------------------------------------------------------|
D|----------------------------------------------------------------------|
A|-------------5--------------5-------------5-------5---5--5------------|
E|--0---0-2-3-----0----0-2-3----0----0-2-3----5---5---5---5-------------|

Solo 1 is pre-verse

Solo 2 is first pre-verse, then:

G|------------------------------------------------------------------------|
D|------------------------------------------------------------------------|
A|------------------------------------------------------------------------|
E|-------0-0-0-0-0-0-0-0-0-0-0-0-0----------------------------------------|
                                       Then pre-verse again...


| /  slide up
| \  slide down
| h  hammer-on
| p  pull-off
| ~  vibrato
| +  harmonic
| x  Mute note
===========================================================================
Comments