Ac Dc - Up To My Neck In You Chords & Tabs

 

Up To My Neck In You Chords & Tabs

Ac Dc Chords & Tabs

Version: 1 Type: Tab 0 ratings
1 star 2 stars 3 stars 4 stars 5 stars
comments

Up To My Neck In You Tab

AC/DC - Up To My Neck In You (from the album Powerage)
Tabbed by Voytazz





Intro:


E-----------|--------------------------|
B-----------|--------------------------|
G-----------|--2-----------------------| Play this
D--5--5--5--|--2--2--4--5--4--2--2--4--| 6 times.
A--5--5--5--|--0--0--0--0--0--0--0--0--|
E--3--3--3--|--------------------------|

Verse (1):


E-----------|--------------------------|
B-----------|--------------------------|
G-----------|--2-----------------------| Play this
D--5--5--5--|--2--2--4--5--4--2--2--4--| 6 times.
A--5--5--5--|--0--0--0--0--0--0--0--0--|
E--3--3--3--|--------------------------|

E-----------|--------------------------|
B-----------|--------------------------|
G--5--5--5--|--2--2--4--2--4--2--2--4--| Play this
D--5--5--5--|--0--0--0--0--0--0--0--0--| 2 times.
A--3--3--3--|--------------------------|
e-----------|--------------------------|
   
E-----------|--------------------------|
B-----------|--------------------------|
G--5--5--5--|--2-----------------------| 
D--5--5--5--|--2--2--4--5--4--2--2--4--| 
A--3--3--3--|--0--0--0--0--0--0--0--0--|
E-----------|--------------------------|     

E-----------|--------------------------------|
B-----------|--------------------------------|
G-----------|--2-----------------------------| 
D--5--5--5--|--2--2--4--5--4--2--2--4--5--4--| 
A--5--5--5--|--0--0--0--0--0--0--0--0--0--0--|
E--3--3--3--|--------------------------------|

Chorus (1):


Guitar 1


E-------------------------|------------------|
B-------------------------|----3--3--3--3----|
G-------------------------|----2--2--2--2----|
D----2--2--2---2--2--2----|----0--0--0--0----|
A----2--2--2---2--2--2----|------------------|
E----0--0--0---0--0--0----|------------------|


Guitar 2


E------------------------------|
B------------------------------|
G------------------------------|
D----------------7--5--4--2----|
A----5--4--2--0----------------|
E------------------------------|


Verse (2):


E-----------|--------------------------|
B-----------|--------------------------|
G-----------|--2-----------------------| Play this
D--5--5--5--|--2--2--4--5--4--2--2--4--| 6 times.
A--5--5--5--|--0--0--0--0--0--0--0--0--|
E--3--3--3--|--------------------------|

E-----------|--------------------------|
B-----------|--------------------------|
G--5--5--5--|--2--2--4--2--4--2--2--4--| Play this
D--5--5--5--|--0--0--0--0--0--0--0--0--| 2 times.
A--3--3--3--|--------------------------|
e-----------|--------------------------|
   
E-----------|--------------------------|
B-----------|--------------------------|
G-----------|--2-----------------------| 
D--5--5--5--|--2--2--4--5--4--2--2--4--| 
A--5--5--5--|--0--0--0--0--0--0--0--0--|
E--3--3--3--|--------------------------|     

E-----------|--------------------------------|
B-----------|--------------------------------|
G-----------|--2-----------------------------| 
D--5--5--5--|--2--2--4--5--4--2--2--4--5--4--| 
A--5--5--5--|--0--0--0--0--0--0--0--0--0--0--|
E--3--3--3--|--------------------------------|

Chorus (2):


Guitar 1


E-------------------------|------------------|
B-------------------------|----3--3--3--3----|
G-------------------------|----2--2--2--2----|
D----2--2--2---2--2--2----|----0--0--0--0----|
A----2--2--2---2--2--2----|------------------|
E----0--0--0---0--0--0----|------------------|


Guitar 2


E------------------------------|
B------------------------------|
G------------------------------|
D-------------7--5--4--2--0----|
A----5--4--2-------------------|
E------------------------------|


Solo:


Guitar 1


E-----------|--------------------------|
B-----------|--------------------------|
G-----------|--2-----------------------| Play this
D--5--5--5--|--2--2--4--5--4--2--2--4--| 6 times.
A--5--5--5--|--0--0--0--0--0--0--0--0--|
E--3--3--3--|--------------------------|

E-----------|--------------------------|
B-----------|--------------------------|
G--5--5--5--|--2--2--4--2--4--2--2--4--| Play this
D--5--5--5--|--0--0--0--0--0--0--0--0--| 2 times.
A--3--3--3--|--------------------------|
e-----------|--------------------------|
   
E-----------|--------------------------|
B-----------|--------------------------|
G--5--5--5--|--2-----------------------| 
D--5--5--5--|--2--2--4--5--4--2--2--4--| 
A--3--3--3--|--0--0--0--0--0--0--0--0--|
E-----------|--------------------------|     

E-----------|--------------------------------|
B-----------|--------------------------------|
G-----------|--2-----------------------------| 
D--5--5--5--|--2--2--4--5--4--2--2--4--5--4--| 
A--5--5--5--|--0--0--0--0--0--0--0--0--0--0--|
E--3--3--3--|--------------------------------|

E-------------------------|------------------|
B-------------------------|----3--3--3--3----|
G-------------------------|----2--2--2--2----|
D----2--2--2---2--2--2----|----0--0--0--0----|
A----2--2--2---2--2--2----|------------------|
E----0--0--0---0--0--0----|------------------|

E-----------|--------------------------|
B-----------|--------------------------|
G-----------|--2-----------------------| Play this
D--5--5--5--|--2--2--4--5--4--2--2--4--| 6 times.
A--5--5--5--|--0--0--0--0--0--0--0--0--|
E--3--3--3--|--------------------------|

E-----------|--------------------------|
B-----------|--------------------------|
G--5--5--5--|--2--2--4--2--4--2--2--4--| Play this
D--5--5--5--|--0--0--0--0--0--0--0--0--| 2 times.
A--3--3--3--|--------------------------|
e-----------|--------------------------|
   
E-----------|--------------------------|
B-----------|--------------------------|
G-----------|--2-----------------------| 
D--5--5--5--|--2--2--4--5--4--2--2--4--| 
A--5--5--5--|--0--0--0--0--0--0--0--0--|
E--3--3--3--|--------------------------|     

E-----------|--------------------------------|
B-----------|--------------------------------|
G-----------|--2-----------------------------| 
D--5--5--5--|--2--2--4--5--4--2--2--4--5--4--| 
A--5--5--5--|--0--0--0--0--0--0--0--0--0--0--|
E--3--3--3--|--------------------------------|

E-------------------------|----------3-3-3---|
B-------------------------|---3-3-3--3-3-3---|
G-------------------------|---2-2-2--0-0-0---|
D----2--2--2---2--2--2----|---0-0-0--0-0-0---|
A----2--2--2---2--2--2----|------------------|
E----0--0--0---0--0--0----|------------------|
[ Tab from: http://www.guitartabs.cc/tabs/a/ac_dc/up_to_my_neck_in_you_tab.html ]
E------------------|-------|-----------------|
B------------------|-------|-----------------|
G--2---------------|-------|-2---------------| 
D--2-2-4-5-4-2-2-4-|-5-5-5-|-2-2-4-5-4-2-2-4-| 
A--0-0-0-0-0-0-0-0-|-5-5-5-|-0-0-0-0-0-0-0-0-|
E------------------|-3-3-3-|-----------------|

Guitar 2


E-----------------------------|--------------|
B-----------------------------|--------------|
G-----------------------------|--------------|
D-10-7-7~--10-7-7~--10-7-7-7~-|-10b--12--10b-|
A-----------------------------|--------------|
E-----------------------------|--------------|

E--------------------------------------------|
B--------------------------------------------|
G--------------------------------------------|
D-12-10b--12-10b--12-10b--12-10b--12-10-7-7~-|
A--------------------------------------------|
E--------------------------------------------|

E------------------|-------------------------|
B---10-8-----------|---8-8-10-10-8-----------|
G-7------9-9-------|-7---7--7--7-7-----12\9--|
D------------10-7~-|---------------10--------|
A------------------|-------------------------|
E------------------|-------------------------|

E---------------|----------------------------|		
B--8------8-----|--8------8-----8------8-----|		
G--7------7-----|--7------7-----7------7-----|		
D-----10----10--|-----10-----10----10-----10-|		
A---------------|----------------------------|		
E---------------|----------------------------|		

E--------------------------------------------|
B---8-10-10---8-10-10----8-10-10---8-10-10---|
G---7--7--7---7--7--7----7--7--7---7--7--7---|
D--------------------------------------------|
A--------------------------------------------|
E--------------------------------------------|

E--------------------------------------------|
B---8-10-10---8-10-10----8-10-10---8-10-10---|
G---7--7--7---7--7--7----7--7--7---7--7--7---|
D--------------------------------------------|
A--------------------------------------------|
E--------------------------------------------|


E----------------------------|-------------------|
B----13-----------------8----|-13-12----13-12----|
G-14----14-12-----------7----|-------14-------14-|
D-------------14-12-10b---10-|-------------------|
A----------------------------|-------------------|
E----------------------------|-------------------|

E-------------|--------------|-------------------|
B-12----12-13-|--------12----|--13-12------------|
G----14-------|-12--------14-|---------14-12-----|
D-------------|----14--------|----------------14-|
A-------------|--------------|-------------------|
E-------------|--------------|-------------------|

E----------------------------|-------------------|
B----------------------------|-8-8-8-8--8-8-8-8--|
G----------------------------|-9-9-9-9--9-9-9-9--|
D-12-10-----12-10-----12-10~-|-------------------|
A-------12---------12--------|-------------------|
E----------------------------|-------------------|

E------------------------------------------------|
B--8-8-8-8--8-8-8-8--8-8-8-8--8-8-8-8--8-8-8-8---|
G--9-9-9-9--9-9-9-9--9-9-9-9--9-9-9-9--9-9-9-9---|
D------------------------------------------------|
A------------------------------------------------|
E------------------------------------------------|

E----------|-------------------------------------|
B--8-8-8-8-|---10~--12p10---10~-12p10---10\13b---|
G--9-9-9-9-|-------------------------------------|
D----------|-------------------------------------|
A----------|-------------------------------------|
E----------|-------------------------------------|

E----------------------|-------------------------|
B-10~-10-10~-10-10\13b-|-13b-13b-13b-13b-13b-13b-|
G----------------------|-------------------------|
D----------------------|-------------------------|
A----------------------|-------------------------|
E----------------------|-------------------------|

E-12-12-12-------------------|-------------------|
B----------13p10-13p10-13p10-|-------------------|
G----------------------------|--------12-14b-14b-|
D----------------------------|-12-14-------------|
A----------------------------|-------------------|
E----------------------------|-------------------|

E----------------------------|-------------------|
B-13-----------13------------|-14-14----14-14-14-|
G----14b----12----14b-12-14b-|-------14b---------|
D--------14------------------|-------------------|
A----------------------------|-------------------|
E----------------------------|-------------------|

E-15-12-12-15-12-12-|----------------------------|
B-------------------|-13-13--13-13--13-13--13----|
G-------------------|------14-----14-----14--14~-|
D-------------------|----------------------------|
A-------------------|----------------------------|
E-------------------|----------------------------|

E-------------------------------|------12--------|	
B-14-14-14-14--14---------------|--14------14-14-|
G-14-14-14-14--14--17\14-14-14~-|-------------14-|
D-------------------------------|----------------|
A-------------------------------|----------------|
E-------------------------------|----------------|

E-----------------|------------------------------|
B-----------------|------------------------------|
G-14-11-14-14-14~-|-11-14-14--11-14-14--11-14-14-|
D-----------------|------------------------------|
A-----------------|------------------------------|
E-----------------|------------------------------|

E-------------------------|-17-15-17~--17-15-17~-|
B-------------------------|----------------------|
G-11-14-14--11-14-14--14\-|----------------------|
D-------------------------|----------------------|
A-------------------------|----------------------|
E-------------------------|----------------------|

E-----17---17---17---17---17~~--\--15------------|
B---------------------------------------17~~-----|
G------------------------------------------------|
D------------------------------------------------|
A------------------------------------------------|
E------------------------------------------------|




After the solo play:

- Verse (2)
- Chorus (2)
- Verse (2)
- Chorus (2)




Outro:


E-----------|--------------------------|
B-----------|--------------------------|
G-----------|--2-----------------------| 
D--5--5--5--|--2--2--4--5--4--2--2--4--| 
A--5--5--5--|--0--0--0--0--0--0--0--0--|
E--3--3--3--|--------------------------|     

E-------|-----|------------------|-----|
B-------|-----|------------------|-----|
G-------|--2--|--7p5-------------|--2--| 
D-5-5-5-|--2--|------7--5--------|--2--| 
A-5-5-5-|--0--|-----------7-5----|--0--|
E-3-3-3-|-----|---------------5--|-----|
Comments