Ac Dc - Touch Too Much Chords & Tabs

 

Touch Too Much Chords & Tabs

Ac Dc Chords & Tabs

Version: 3 Type: Tab 0 ratings
1 star 2 stars 3 stars 4 stars 5 stars
comments

Touch Too Much Tab

Touch Too Much                                  


This is a good song old ac/dc its pretty easy
                                                         
E||--0-----------------------|--0-----------------------|
B||--0-----------------------|--0-----------------------|
G||--------------------------|--------------------------|
D||--2--2--2--2--2--2--2--2--|--2--2--2--2--2--2--2--2--|
A||--2--2--2--2--2--2--2--2--|--2--2--2--2--2--2--2--2--|
E||--0--0--0--0--0--0--0--0--|--0--0--0--0--0--0--0--0--|


                                                      
--0-----------------------|--0-----------------------|
--0-----------------------|--0-----------------------|
--------------------------|--------------------------|
--2--2--2--2--2--2--2--2--|--2--2--2--2--2--2--2--2--|
--2--2--2--2--2--2--2--2--|--2--2--2--2--2--2--2--2--|
--0--0--0--0--0--0--0--0--|--0--0--0--0--0--0--0--0--|


                                                      
--0-----------------------|--------------------------|
--0-----------------------|--------------------------|
--------------------------|--5--5--5--5--5--5--5--5--|
--2--2--2--2--2--2--2--2--|--5--5--5--5--5--5--5--5--|
--2--2--2--2--2--2--2--2--|--3--3--3--3--3--3--3--3--|
--0--0--0--0--0--0--0--0--|--------------------------|


                                                      
--------------------------|--------------------------|
--------------------------|--3--2--2--3--2--2--3--2--|
--2--2--2--2--2--2--2--2--|--2--2--2--2--2--2--2--2--|
--2--2--2--2--2--2--2--2--|--2--2--2--2--2--2--2--2--|
--0--0--0--0--0--0--0--0--|--0--0--0--0--0--0--0--0--|
--------------------------|--------------------------|


                                                      
--------------------------|--------------------------|
--------------------------|--------------------------|
--------------------------|--5--5--5--5--5--5--5--5--|
--2--2--2--2--2--2--2--2--|--5--5--5--5--5--5--5--5--|
--2--2--2--2--2--2--2--2--|--3--3--3--3--3--3--3--3--|
--0--0--0--0--0--0--0--0--|--------------------------|


                                                      
--------------------------|--------------------------|
--------------------------|--3--2--2--3--2--2--3--2--|
--2--2--2--2--2--2--2--2--|--2--2--2--2--2--2--2--2--|
--2--2--2--2--2--2--2--2--|--2--2--2--2--2--2--2--2--|
--0--0--0--0--0--0--0--0--|--0--0--0--0--0--0--0--0--|
--------------------------|--------------------------|


                                                      
--------------------------|--------------------------|
--------------------------|--------------------------|
--5--5--5--5--5--5--5--5--|--5--5--5--5--5--5--5--5--|
--5--5--5--5--5--5--5--5--|--5--5--5--5--5--5--5--5--|
--3--3--3--3--3--3--3--3--|--3--3--3--3--3--3--3--3--|
--------------------------|--------------------------|


                                                      
--------------------------|--------------------------|
--------------------------|--------------------------|
--2--2--2--2--2--2--2--2--|--2--2--2--2--2--2--2--2--|
--2--2--2--2--2--2--2--2--|--2--2--2--2--2--2--2--2--|
--0--0--0--0--0--0--0--0--|--0--0--0--0--0--0--0--0--|
--------------------------|--------------------------|


                                                      
--------------------------|--------------------------|
--------------------------|--------------------------|
--5--5--5--5--5--5--5--5--|--5--5--5--5--5--5--5--5--|
--5--5--5--5--5--5--5--5--|--5--5--5--5--5--5--5--5--|
--3--3--3--3--3--3--3--3--|--3--3--3--3--3--3--3--3--|
--------------------------|--------------------------|


                                                                               
--------------------------|--------------------------|------------------------|
--------------------------|--------------------------|------------------------|
--7--7--7--7--7--7--7--7--|--7--7--7--7--7--7--7--7--|------------------------|
--7--7--7--7--7--7--7--7--|--7--7--7--7--7--7--7--7--|-------2----2--------5--|
--5--5--5--5--5--5--5--5--|--5--5--5--5--5--5--5--5--|-------2----2--2--2--5--|
--------------------------|--------------------------|--x----0----0--0--0--3--|


                                                                              
--------------------------|------------------------|-------------------------|
--------------------------|------------------------|-------------------------|
--------------------------|-------2----2--------5--|-----------7-------------|
--------------------------|-------2----2--2--2--5--|-----------7----7--7--7--|
-----5--5--5--5--5--5--5--|--x----0----0--0--0--3--|--x--2--0--5----5--5--5--|
--x--3--3--3--3--3--3--3--|------------------------|-------------------------|


                                                                             
------------------------|--------------------------|------------------------|
------------------------|--------------------------|------------------------|
------------------------|--------------------------|-------2----2--------5--|
-------2----2--------5--|--------------------------|-------2----2--2--2--5--|
-------2----2--2--2--5--|-----5--5--5--5--5--5--5--|-------0----0--0--0--3--|
--x----0----0--0--0--3--|--x--3--3--3--3--3--3--3--|--x---------------------|


                                                                                
-------------------------|--------------------------|--------------------------|
-------------------------|--------------------------|--------------------------|
-----------7----7--7--7--|--------------------------|--------------------------|
-----------7----7--7--7--|--2--2--2--2--2--2--2--2--|--5--5--5--5--5--5--5--5--|
--x--2--0--5----5--5--5--|--2--2--2--2--2--2--2--2--|--5--5--5--5--5--5--5--5--|
-------------------------|--0--0--0--0--0--0--0--0--|--3--3--3--3--3--3--3--3--|


                                                                               
--------------------------|-------------------------|-------------------------|
--------------------------|-------------------------|-------------------------|
--2--2--2--2--2--2--2--5--|-----------7-------------|-------------------------|
--2--2--2--2--2--2--2--5--|-----------7----7--7--7--|--------2-------------5--|
--0--0--0--0--0--0--0--3--|--x--2--0--5----5--5--5--|--------2----2--2--2--5--|
--------------------------|-------------------------|--x--x--0----0--0--0--3--|


                                                                         
------------------|--------------------------|--------------------------|
------------------|--------------------------|--3--2--2--3--2--2--3--2--|
------------------|--------------------------|--2--2--2--2--2--2--2--2--|
------------------|--2--2--2--2--2--2--2--2--|--2--2--2--2--2--2--2--2--|
------------------|--0--0--0--0--0--0--0--0--|--0--0--0--0--0--0--0--0--|
------------------|--------------------------|--------------------------|


                                                      
--------------------------|--------------------------|
--------------------------|--------------------------|
--------------------------|--------------------------|
--2--2--2--2--2--2--2--2--|--2--2--2--2--2--2--2--2--|
--2--2--2--2--2--2--2--2--|--2--2--2--2--2--2--2--2--|
--0--0--0--0--0--0--0--0--|--0--0--0--0--0--0--0--0--|

[ Tab from: http://www.guitartabs.cc/tabs/a/ac_dc/touch_too_much_tab_ver_3.html ]
                                                      
--------------------------|--------------------------|
--------------------------|--------------------------|
--------------------------|--------------------------|
--2--2--2--2--2--2--2--2--|--5--5--5--5--5--5--5--5--|
--2--2--2--2--2--2--2--2--|--5--5--5--5--5--5--5--5--|
--0--0--0--0--0--0--0--0--|--3--3--3--3--3--3--3--3--|


                                                      
--------------------------|--------------------------|
--------------------------|--------------------------|
--2--2--2--2--2--2--2--2--|--x--7--x--7--x--2--x--2--|
--2--2--2--2--2--2--2--2--|-----7-----7-----2-----2--|
--0--0--0--0--0--0--0--0--|-----5-----5-----0-----0--|
--------------------------|--------------------------|


                                                      
--------------------------|--------------------------|
--------------------------|--------------------------|
--------------------------|--------------------------|
--2--2--2--2--2--2--2--2--|--5--5--5--5--5--5--5--5--|
--2--2--2--2--2--2--2--2--|--5--5--5--5--5--5--5--5--|
--0--0--0--0--0--0--0--0--|--3--3--3--3--3--3--3--3--|


                                                      
--------------------------|--------------------------|
--------------------------|--------------------------|
--2--2--2--2--2--2--2--2--|-----7-----7-----2-----2--|
--2--2--2--2--2--2--2--2--|-----7-----7-----2-----2--|
--0--0--0--0--0--0--0--0--|--x--5--x--5--x--0--x--0--|
--------------------------|--------------------------|


                                                      
--------------------------|--------------------------|
--------------------------|--------------------------|
--5--5--5--5--5--5--5--5--|--5--5--5--5--5--5--5--5--|
--5--5--5--5--5--5--5--5--|--5--5--5--5--5--5--5--5--|
--3--3--3--3--3--3--3--3--|--3--3--3--3--3--3--3--3--|
--------------------------|--------------------------|


                                                      
--------------------------|--------------------------|
--------------------------|--------------------------|
--2--2--2--2--2--2--2--2--|--2--2--2--2--2--2--2--2--|
--2--2--2--2--2--2--2--2--|--2--2--2--2--2--2--2--2--|
--0--0--0--0--0--0--0--0--|--0--0--0--0--0--0--0--0--|
--------------------------|--------------------------|


                                                      
--------------------------|--------------------------|
--------------------------|--------------------------|
--5--5--5--5--5--5--5--5--|--5--5--5--5--5--5--5--5--|
--5--5--5--5--5--5--5--5--|--5--5--5--5--5--5--5--5--|
--3--3--3--3--3--3--3--3--|--3--3--3--3--3--3--3--3--|
--------------------------|--------------------------|


                                                                               
--------------------------|--------------------------|------------------------|
--------------------------|--------------------------|------------------------|
--7--7--7--7--7--7--7--7--|--7--7--7--7--7--7--7--7--|------------------------|
--7--7--7--7--7--7--7--7--|--7--7--7--7--7--7--7--7--|-------2----2--------5--|
--5--5--5--5--5--5--5--5--|--5--5--5--5--5--5--5--5--|--x----2----2--2--2--5--|
--------------------------|--------------------------|-------0----0--0--0--3--|


                                                                              
--------------------------|------------------------|-------------------------|
--------------------------|------------------------|-------------------------|
--------------------------|-------2-------------5--|-----------7-------------|
--------------------------|-------2----2--2--2--5--|-----------7----7--7--7--|
-----5--5--5--5--5--5--5--|-------0----0--0--0--3--|--x--2--0--5----5--5--5--|
--x--3--3--3--3--3--3--3--|--x---------------------|-------------------------|


                                                                             
------------------------|--------------------------|------------------------|
------------------------|--------------------------|------------------------|
------------------------|--------------------------|-------2-------------5--|
-------2----2--------5--|--------------------------|-------2----2--2--2--5--|
-------2----2--2--2--5--|-----5--5--5--5--5--5--5--|--x----0----0--0--0--3--|
--x----0----0--0--0--3--|--x--3--3--3--3--3--3--3--|------------------------|


                                                                                
-------------------------|--------------------------|--------------------------|
-------------------------|--------------------------|--------------------------|
-----------7----7--7--7--|--------------------------|--------------------------|
-----------7----7--7--7--|--2--2--2--2--2--2--2--2--|--5--5--5--5--5--5--5--5--|
--x--2--0--5----5--5--5--|--2--2--2--2--2--2--2--2--|--5--5--5--5--5--5--5--5--|
-------------------------|--0--0--0--0--0--0--0--0--|--3--3--3--3--3--3--3--3--|


                                                                               
--------------------------|-------------------------|-------------------------|
--------------------------|-------------------------|-------------------------|
--2--2--2--2--2--2--2--5--|-----------7-------------|-------------------------|
--2--2--2--2--2--2--2--5--|-----------7----7--7--7--|-------------------------|
--0--0--0--0--0--0--0--3--|--x--2--0--5----5--5--5--|--------2----2--2--2--5--|
--------------------------|-------------------------|--x--x--0----0--0--0--3--|


                                                                         
------------------|--------------------------|--------------------------|
------------------|--------------------------|--------------------------|
------------------|--2--2--2--2--2--2--2--2--|--2--2--2--2--2--2--2--2--|
------------------|--2--2--2--2--2--2--2--2--|--2--2--2--2--2--2--2--2--|
------------------|--0--0--0--0--0--0--0--0--|--0--0--0--0--0--0--0--0--|
------------------|--------------------------|--------------------------|


                                                      
--------------------------|--------------------------|
--------------------------|--------------------------|
--5--5--5--5--5--5--5--5--|--5--5--5--5--5--5--5--5--|
--5--5--5--5--5--5--5--5--|--5--5--5--5--5--5--5--5--|
--3--3--3--3--3--3--3--3--|--3--3--3--3--3--3--3--3--|
--------------------------|--------------------------|


                                                      
--------------------------|--------------------------|
--------------------------|--------------------------|
--2--2--2--2--2--2--2--2--|--2--2--2--2--2--2--2--2--|
--2--2--2--2--2--2--2--2--|--2--2--2--2--2--2--2--2--|
--0--0--0--0--0--0--0--0--|--0--0--0--0--0--0--0--0--|
--------------------------|--------------------------|


                                                      
--------------------------|--------------------------|
--------------------------|--------------------------|
--5--5--5--5--5--5--5--5--|--5--5--5--5--5--5--5--5--|
--5--5--5--5--5--5--5--5--|--5--5--5--5--5--5--5--5--|
--3--3--3--3--3--3--3--3--|--3--3--3--3--3--3--3--3--|
--------------------------|--------------------------|


                                                                            
--------------------------|--------------------------|---------------------|
--------------------------|--------------------------|---------------------|
--7--7--7--7--7--7--7--7--|--7--7--7--7--7--7--7--7--|----------------2----|
--7--7--7--7--7--7--7--7--|--7--7--7--7--7--7--7--7--|--2------5------2----|
--5--5--5--5--5--5--5--5--|--5--5--5--5--5--5--5--5--|--2------5------0----|
--------------------------|--------------------------|--0------3-----------|


                                                                           
----------------------|---------------------|
----------------------|---------------------|
------2-----2--4------|--5------2-----------|
------2--5--2--4------|--5------2------2----|
------0--5--0--2------|--3------0------2----|
---------3------------|----------------0----|
Comments