Ac Dc - Tnt Chords & Tabs

 

Tnt Chords & Tabs

Ac Dc Chords & Tabs

Version: 8 Type: Tab 0 ratings
1 star 2 stars 3 stars 4 stars 5 stars
comments

Tnt Tab

   
AC DC
TNT
~=let ring
M=muffle alittle after it's played
P.M=palm mute
X=played muffled
^=bend
()=bend to sound like this note 


Chorus                                      chorus end
E|-0~|-----------------------------------| |----------------| (play right after
B|-0~|-----------------------------------| |----------------|  the final time
G|-1~|----1---0--2--------2--------------| |---1---0--2~----|->the chorus is
D|-2~|----2---0--2--------2--------------| |---2---0--2~----|  played each time)
A|-2~|----2---X--0--------0--------------| |---2---X--0~----|  
E|-0~|----0---3--------3-----3^(4)-------| |---0---3--------|   
          M      M    P.M                x10   M                  



[ Tab from: http://www.guitartabs.cc/tabs/a/ac_dc/tnt_tab_ver_8.html ]
Verse
E|---------| |------|
B|---------| |------|
G|---2-0-1-| |--0-2-|
D|---2-0-2-| |--0-2-|-->(Play right after the final
A|---0-X-2-| |--X-0-|     time the verse is played.)
E|-----3-0-| |--3---|
           x4
Chorus x10+chorus end
Verse x4
Chorus x4+chorus end,with solo 
Verse x8
(Sorry no solo but if you have it I'd appriciate it emailed to me.)

(In the end guitar 1 plays first then guitar 2 then 1&2&1&2&1&2&1&2... You get
what I'm saying. If you don't, listen to the song on cd or what ever you have and
you'll pick it up.)

End Guitar 1
E|-0--1--2--3--4-5-6-7-8-   
B|-0--1--2--3--4-5-6-7-8-  
G|-1--2--3--4--5-6-7-8-9-  
D|-2--3--4--5--6-7-8-9-10- 
A|-2--3--4--5--6-7-8-9-10- 
E|-0--1--2--3--4-5-6-7-8-  
(continue to go up one fret at a time)


End guitar 2
E|---------------------------------------|
B|---------------------------------------|
G|--7^---8^---9^---10^---11^---12^---13^-|
D|---------------------------------------|
A|---------------------------------------|
E|---------------------------------------|
(go up one fret each time.) 


E|-0-|
B|-0-|
G|-1-|
D|-2-|->(Play right at the end)
A|-2-|
E|-0-|

Thank you for looking at my tab. It took me awhile listening to the song to
get it down and I still didn't get the solo. But look for that and other tabs by
MIRT in the future.Thanks! 

                           Mirt
Comments