Ac Dc - Tnt Chords & Tabs

 

Tnt Chords & Tabs

Ac Dc Chords & Tabs

Version: 5 Type: Tab 7 ratings
1 star 2 stars 3 stars 4 stars 5 stars
comments

Tnt Tab

      

                 THE REAL WAY TO PLAY T.N.T.
IS LIKE THIS I GOT IT OUT FROM MY BONFIRE TAB BOOK 
                    INTO
E---------------------3-------------------------------------|R
B---------------------3------------------------------------0|E
G---1--------1--------0-------2--------2------------1-------|P
D---2--------2--------0-------2--------2------------2-------|E
A---2--------2----------------0--------0------------2------O|A
E---0--------0--------3------------3---------3------0-------|T
[ Tab from: http://www.guitartabs.cc/tabs/a/ac_dc/tnt_tab_ver_5.html ]
                    CHORUS
E--------------------------------------------------|-------------|
B--------------------------------------------------|-------------|
G------2-----------1-----------2-----------1-------|----2^-------|
D------2-----------2-----------2-----------2-------|-------------|
A------0-----------2-----------0-----------2-------|-------------|
E-----------3------0-----------------3-----0-------|-------------|
                                                    (THIS IS THAT PART WHERE BON GOES WATCH ME EXPLODED)
                                                    
           TAB EXPLANATION
                                                    
        ^: BEND         TABED BY JOSH WILLIAMS 
QUESTIONS OR COMMENTS CONTACT ME HERE BIGJ1987@MSN.COM
 CIAO!!!!!!!!!!
Comments