Ac Dc - Tnt Chords & Tabs

 

Tnt Chords & Tabs

Ac Dc Chords & Tabs

Version: 2 Type: Tab 3 ratings
1 star 2 stars 3 stars 4 stars 5 stars
comments

Tnt Tab

Here is the way that I play TNT

it is really easy and you probably can play the song on the first try

all that isnt here is the solo


|-----------------------------------------------------|
|-----------------------------------------------------|
|----------------2------2-------------------2---------|
|----------------2------2-------------------2---------|11 times
|---2------------0------0------2------------0---------|
|---0--------3------3-----3----0-----3----------------|


Refrain


|-------------------------------------|
|-------------------------------------|
|----2--------------------------------| 3 times
|----2--------------------------------|
|----0------2-------------------------|
|-------3---0---X-X-X-X-X-X-X-X-------|


[ Tab from: http://www.guitartabs.cc/tabs/a/ac_dc/tnt_tab_ver_2.html ]
|-------------------------------------|
|-------------------------------------|
|----2--------------------------------|
|----2--------------------------------|
|----0------2-------------------------|
|-------3---0-------------------------|
                  ^ let ring



do verses again and refrain a couple more times dont know how many more times. This song is soooo simple!


at the end youll get to this part it is really easy


|------------------------------
|------------------------------
|----3----4-----5----6----7---
|--3-3--4-4--5-5--6-6--7-7--
|--3-1--4-2--5-3--6-4--7-5--
|--1----2-----3----4----5----


see how it goes all the way up the fretboard. Just do this pattern until you run out of frets and you have the whole song!



If you have the solo tell me how to play it


email me at kwsplash@hotmail.com
Comments