Ac Dc - Tnt Solo Chords & Tabs

 

Tnt Solo Chords & Tabs

Ac Dc Chords & Tabs

Version: 1 Type: Tab 6 ratings
1 star 2 stars 3 stars 4 stars 5 stars
comments

Tnt Solo Tab

   
TNT solo
B-bend
R-release
V-vibrato
H-hammer
P-pulloff
/-slide up
\-slide down
----------------------------------------------3-2---0----------------------------------------------------
------------------------------------------------------------3-2---0--------------------------------------
--------------------2B------HOLD------R-------------------------2---0-----------0------------------------
-------------------------------------------------------------------------4/5------------------------------
----------------------------------------------------------------------------------------------------------
------------------------------------------------------------------------------------------------/15\-----0
[ Tab from: http://www.guitartabs.cc/tabs/a/ac_dc/tnt_solo_tab.html ]
-------------------------------------12-------------------------------------------------------------------
-------------15B-V---------------------15----12-------- 12-------------------------------------------
-----------------------------------------------------12H14----14—14P12-----14-------12-----14B----------
---------------------------------------------------------------------------------14------14--------------
----------------------------------------------------------------------------------------------------------
------------------------------------------------------------------------------------------------------------ 

-------------12---------------------------------12------------------------------------------------------
--------12---12----15P12-------------------------------------------12---------------15B-V----------------
-------------------------------14H16-------------------------------------------------------------------
----------------------------------------------------------------------------------------------------------
---------------------------------------------------------------------------------------------------------
---------------------------------------------------------------------------------------------------------

--------------------------------------------17B----V---------------------------------------------------
------------------------------------------------------------------------------------------------------
-----------------------------------------------------------------------------------------------------
--------------14---12---14V-------14\-----------------------------------------------------------------
----------------------------------------------------------------------------------------------------------
---------------------------------------------------------------------------------------------------------

listen to get timing and other such things down but this is 100% correct.  
  HAVE FUN!!!!!!!!!!!!!!

Comments