Ac Dc - Tnt Live Chords & Tabs

 

Tnt Live Chords & Tabs

Ac Dc Chords & Tabs

Version: 1 Type: Tab 0 ratings
1 star 2 stars 3 stars 4 stars 5 stars
comments

Tnt Live Tab

-----------------------------------------------------------------------------
			     TNT (Live) - AC/DC
-----------------------------------------------------------------------------
Tabbed by: thunderstruck24
Email: thunderstruck996@hotmail.com

Tuning: Standard

This is the version of the song that is on the live album. That is why
there are a few differences in the verse and solo. Also, this is my first
tab so tell me what you think.

INTRO:
e|--------------------------------------------------------------------------|
B|--------------------------------------------------------------------------|
G|---1----------------------------------------------------------------------|
D|---2---Let ring for 3 bars------------------------------------------------|
A|---2----------------------------------------------------------------------|
E|---0----------------------------------------------------------------------|

VERSE:
e|--------------------------------------------------------------------------|
B|--------------------------------------------------------------------------|
G|--1----0----2-----2-------------------------------------------------------|
D|--2----0----2-----2-------------------------------------------------------|
A|--2----x----0-----0-------------------------------------------------------|
E|--0----3-------3-----3--0-------------------------------------------------|

CHORUS:
    T  N  T         Watch Me Explode
e|--------------|----------------------|------------------------------------|
B|--------------|----------------------|------------------------------------|
G|--2-----1-----|------2---------------|---------2B~~~~~~-------------------|
D|--2-----2-----|------2---------------|------------------------------------|
A|--0-----2-----|------0---------------|------------------------------------|
E|-----3--0-----|---3------------------|------------------------------------|

SOLO:
e|----------------|--3-2-0-------------15-----------------------------------|
B|----------------|--------3-2-0--------------------8-8-8b------------------|
G|--2B~~~-----2BR-|--------------3-2-0----------------------9-7-9-----------|
D|---------5------|---------------------------------------------------------|
A|----------------|---------------------------------------------------------|
E|----------------|------------------------12\------------------------------|

e|-------12-10-----------12--------11b-12-11b-12-12-10----------------------|
B|-10-12-------10B-12-12----11b-12---------------------12-11-10----11b------|
G|--------------------------------------------------------------12----------|
D|--------------------------------------------------------------------------|
A|--------------------------------------------------------------------------|
E|--------------------------------------------------------------------------|
[ Tab from: http://www.guitartabs.cc/tabs/a/ac_dc/tnt_live_tab.html ]
e|-10--------12-10----------------------------15-12-------------------------|
B|-12-12-11b-------12----10----------------12-------15-12-------------------|
G|--------------------12----9-9-9-9-x-12\0----------------15-14-12----------|
D|-----------------------------------------------------------------14-12----|
A|--------------------------------------------------------------------------|
E|--------------------------------------------------------------------------|

e|--------18b-18b-18b-18b-18QB-18b~~~~~-------------------------------------|
B|--------------------------------------------------------------------------|
G|--------------------------------------------------------------------------|
D|--------------------------------------------------------------------------|
A|-14-14--------------------------------------------------------------------|
E|--------------------------------------------------------------------------|

ENDING:
  Malcolm:
e|--------------------------------------------------------------------------|
B|--------------------------------------------------------------------------|
G|-------------------See the pattern? It just moves to the end of the-------|
D|--2--3--4--5--6----fretboard.---------------------------------------------|
A|--2--3--4--5--6-----------------------------------------------------------|
E|--0--1--2--3--4-----------------------------------------------------------|

  Angus:
e|--------------------------------------------------------------------------|
B|--5---6---7---8-----------------------------------------------------------|
G|--7B--8B--9B--10B-11B-12B-13B-14B-15B-16B-17B-18B-19B-20B-21B-------------|
D|--------------------------------------------------------------------------|
A|--------------------------------------------------------------------------|
E|--------------------------------------------------------------------------|

After that its tremolo picking:
e|--------------------------------------------------------------------------|
B|--------------------------------------------------------------------------|
G|---1----------------------------------------------------------------------|
D|---2----------------------------------------------------------------------|
A|---2----------------------------------------------------------------------|
E|---0----------------------------------------------------------------------|
      tremolo picking_______________________________________

Then slam an E:
    >
e|--0-----------------------------------------------------------------------|
B|--0-----------------------------------------------------------------------|
G|--1-----------------------------------------------------------------------|
D|--2-----------------------------------------------------------------------|
A|--2-----------------------------------------------------------------------|
E|--0-----------------------------------------------------------------------|

Notation Used:
| /  slide up
| \  slide down
| ~  vibrato
| B  full bend
| b  half bend
| QB quarter bend
=============================================================================
Comments