Ac Dc - Tnt Chords & Tabs

 

Tnt Chords & Tabs

Ac Dc Chords & Tabs

Version: 5 Type: Bass Tab 0 ratings
1 star 2 stars 3 stars 4 stars 5 stars
comments

Tnt Bass Tab

   
AC/DC
T.N.T
ALBUM - T.N.T
TABED BY ratbollocks
STANDARD TUNING
E,A,D,G.
PLEASE RATE
~ let note ring/hold note

INTRO   "women to the....."
G------|-----------------------------|
D------|----2-----2-----2-----2------|
A------|-----------------------------|
E-0~~~-|--0-----0-----0-----0---3-5~~|

CHORUS
G------------------------|  |--------|
D------------------------|  |--------|
A------------------------|  |--------|
E-5--3--0--0-0-0-0-0-0-0-|x4|-0-33-5-|
  t.n.t oi oi oi!

VERSE
G------------------|
D------------------|
A------------------|
E-0--3-5--3-5-3-0--|x8
[ Tab from: http://www.guitartabs.cc/tabs/a/ac_dc/tnt_btab_ver_5.html ]
CHORUS
G------------------------|  |--------|
D------------------------|  |--------|
A------------------------|  |--------|
E-5--3--0--0-0-0-0-0-0-0-|x4|-0-33-5-|

SOLO
G-----------------|-----------------|-----------------|-----------------|
D-----------------|-----------------|-----------------|-----------------|
A-0-0-3-5-5-3-5-0-|-0-0-3-5-5-3-5-0-|-0-0-3-5-5-3-5-0-|-0-0-3-5-5-------|
E-----------------|-----------------|-----------------|-----------3-5~--|

INTERLUDE
G--------------------------|
D--------------------------|
A--------------------------|
E-5--3--0--0-0-0-0-0-0-0-0-|x8

OUTRO
G--------------------------------------------------------------------|---|
D--------------------------------------------------------------------|---|
A---1---2---3---4---5---6---7---8---9--10--11--12--13--14--noise-----|---|
E-0---0---0---0---0---0---0---0---0---0---0---0---0--0---0~~---------|-0-|
Comments