Ac Dc - Tnt Chords & Tabs

 

Tnt Chords & Tabs

Ac Dc Chords & Tabs

Version: 4 Type: Bass Tab 0 ratings
1 star 2 stars 3 stars 4 stars 5 stars
comments

Tnt Bass Tab

   
STANDARD TUNINIG (E,A,D,G)

FIRST VERSE (ONLY PLAYED ON INTRO VERSE)

                              `DONT'T YOU START NO FIGHT'
G----------------------------------------|
D-----------2-------2------2-----2-------|
A----------------------------------------|
E-0--------0-------0------0-----0---3--5-|
        (PLAY WITH DRUMS.)

CHORUS
G-------------       ---------|
D-------------       ---------|
A-------------       ---------|
E-5-3-0-000000    x4 --0-33-5-| (PLAYED AFTER CHORUS)
 T N T -OI,OI,OI
[ Tab from: http://www.guitartabs.cc/tabs/a/ac_dc/tnt_btab_ver_4.html ]
MAIN VERSE
G-----------------|
D-----------------|
A-----------------|
E-0-3-5--3-5-3-0--| x8

CHORUS
G--------------      --------|
D--------------      --------|
A--------------      --------|
E-5-3-0-0000000  X4  -0-33-5-|

SOLO

G----------------|
D----------------|
A----------------|
E-0-3-5--3-5-3-0-| 2 OR 3x PLAYED.

G----------------|
D----------------|
A----------------|
E-5-3-0-0000000--| x8

G-------------------------------------------------------|
D-------------------------------------------------------|
A--1--2--3--4--5--6--7--8--9--10--12-(noise)------------|
E-0--0--0--0--0--0--0--0--0--0--0---------------------0-|

    (OUTRO STARTS SLOWER BUT GETS FASTER AND FASTER!)
Comments