Ac Dc - Thunderstruck Chords & Tabs

 

Thunderstruck Chords & Tabs

Ac Dc Chords & Tabs

Version: 8 Type: Tab 0 ratings
1 star 2 stars 3 stars 4 stars 5 stars
comments

Thunderstruck Tab

   
Hey this is a pretty hard song to figure out.  It took me about 4 hours to tab
the whole thing out.  you definetly have to listen to the song to get the rythm.
i think its practically perfect, but if you don't think so let me know so i can
fix it....ashswr14@cablespeed.com

H=hammer on
S=slide
B=bend
P=pull off

Intro
e[------------------------------------------------------------------------]
B[-h4ph7ph4ph7ph4ph7ph4ph7ph4ph7ph4ph7ph4ph7ph4ph7p-----------------------]
G[------------------------------------------------------------------------]
D[------------------------------------------------------------------------]
A[------------------------------------------------------------------------]
E[------------------------------------------------------------------------]

e[------------------------------------------------------------------------]
B[-h5ph8ph5ph8ph5ph8ph5ph8ph5ph8ph5ph8ph5ph8ph5ph8p-----------------------]
G[------------------------------------------------------------------------]
D[------------------------------------------------------------------------]
A[------------------------------------------------------------------------]
E[------------------------------------------------------------------------]
Repeat 2x

e[------------------------------------------------------------------------]
B[---h12ph10ph9ph10ph9ph7ph9ph5ph7ph4ph5ph4ph5ph4ph5ph4p------------------]
G[------------------------------------------------------------------------]
D[------------------------------------------------------------------------]
A[------------------------------------------------------------------------]
E[------------------------------------------------------------------------]
Repeat rythm for rest of the song

e[------------------------------------------------------------------------]
B[------------------------------------------------------------------------]
G[-4-4---4-----4-----4----4-----------------------------------------------]
D[-4-4---4-----4-----4----4-----------------------------------------------]
A[----2-----2-----------2----2--------------------------------------------]
E[------------------------------------------------------------------------]
Malcolm plays this over Angus' rythm throughout the whole song

Verse #1
"Sound of the drums"
e[------------------------------------------------------------------------]
B[------------------------------------------------------------------------]
G[------------------------------------------------------------------------]
D[----4--------2-----------2----2---------------------Repeat 4x-----------]
A[----2--------0---2-------0----0---2-------------------------------------]
E[-----------------0----------------0-------------------------------------]

"You've been.....thunderstruck"
e[------------------------------------------------------------------------]
B[------------------------------------------------------------------------]
G[------------------------------------------------------------------------]
D[-----4------------------------------------------------------------------]
A[-----2------------------------------------------------------------------]
E[------------------------------------------------------------------------]
listen to the song to figure out where to play this (fairly simple)

Pre-Chorus
"they blew our minds"
e[------------------------------------------------------------------------]
B[------------------------------------------------------------------------]
G[---4------2---------------------2---4------2----------------------------]
D[---2------2-----2--Repeat 1-----2---2------2---2---Repeat 3x------------]
A[---2------0-----2---------------0---2------0---2------------------------]
E[----------------0------------------------------0------------------------]

Chorus
"You've been...thunderstruck"
e[------------------------------------------------------------------------]
B[------------------------------------------------------------------------]
G[-------------------2----------------------------------------------------]
D[--4--------2-------0--------2-------------Repeat 3x---------------------]
A[--2--------0----------2-----0-----2-------------------------------------]
E[----------------------0-----------0-------------------------------------]

"Oo,....thunderstruck..............yeah"
e[------------------------------------------------------------------------]
B[------------------------------------------------------------------------]
G[------------------------------------------------------------------------]
D[------------4----------------------4------------------------------------]
A[------------2----------------------2------------------------------------]
E[------------------------------------------------------------------------]

"Shakin at the knees"
e[------------------------------------------------------------------------]
B[------------------------------------------------------------------------]
G[---4------2-------------------------------------------------------------]
D[---4------2-------4-----------Repeat 2x---------------------------------]
A[------------------4-----------------------------------------------------]
E[------------------------------------------------------------------------]

Solo
e[------------------------------------------------------------------------]
B[--9---9---------------------------------------------------7-------------]
G[--9---9---9------------------6----------9----------b9-------------------]
D[------------9---------------------7-----9----s9h7-----------------------]
A[------------------9---7-------------------------------------------------]
E[------------------------------------------------------------------------]

e[------------------------------------------------------------------------]
B[------------------------------------------------------------------------]
G[------------------------------------------------------------------------]
D[---------------4------------------2-----2-------------------------------]
A[---2---2-------2------------------0-----0--------2----------------------]
E[---0---0--------------0-----2--------------------0----------------------]
[ Tab from: http://www.guitartabs.cc/tabs/a/ac_dc/thunderstruck_tab_ver_8.html ]
e[---7--------------------------------------------------------------------]
B[-----10--7--------------------------------------------------------------]
G[------------9--b7---------------------------------------------b9--------]
D[------------------9----s9------7-----b7----7-----9----------------------]
A[--------------------------s9---------------------------0----------------]
E[------------------------------------------------------------------------]

e[------------------------------------------------------------------------]
B[----------------------------7-------------------------------------------]
G[---0h9----7---9--10p9p7p-------9-----7---b7-----9---b7------------------]
D[-------9-----------------9--------9----------9---------9---9------------]
A[------------------------------------------------------------------------]
E[------------------------------------------------------------------------]

e[--b17--17--14-------------------14--17--14----14------------------------]
B[--------------b17---17--15--b17------------17----b17-b17-15--b15b1515-]
G[-----------------------------------------------------------16-----------]
D[------------------------------------------------------------------------]
A[------------------------------------------------------------------------]
E[------------------------------------------------------------------------]

e[------------------------------------------------------------------------]
B[-------------------------------------------------------------------7----]
G[------------7-----7---9---7--b9-----9h7----------------------------7----]
D[-4---2----9---9--------------------------9--------4-----2-------9-----9-]
A[-2---0--------------------------------------------2-----0---------------]
E[------------------------------------------------------------------------]

e[------------------------------------------------------------------------]
B[----7-----9-----7---b9------9h7-----------------------------------------]
G[----7-----9-----7---b9------9h7-----------------------------------------]
D[---------------------------------9--------9-----------------------------]
A[------------------------------------------------------------------------]
E[------------------------------------------------------------------------]

Chorus
e[------------------------------------------------------------------------]
B[------------------------------------------------------------------------]
G[------------------------------------------------------------------------]
D[--4---------------------------------4-----------------------------------]
A[--2-----------------2---------------2----------------------2------------]
E[------------2--4----0--------------------------2----4------0------------]

e[---------------------------------------10---12---10---------------------]
B[----------------------------------12-----------------12-----------------]
G[------------------------------------------------------------------------]
D[------------------------------------------------------------------------]
A[---h2------------h2-----------------------------------------------------]
E[---h0------------h0-----------------------------------------------------]

e[-----------------b10-------10-------7-----b9-----h9-----7---------------]
B[---s12------------------------------------------------------------------]
G[------------------------------------------------------------------------]
D[------------------------------------------------------------------------]
A[------------------------------------------------------------------------]
E[------------------------------------------------------------------------]

e[-----b14-------14--13--12--------b12--------------10---b12--------------]
B[----------------------------15------------------------------------------]
G[------------------------------------------------------------------------]
D[------------------------------------------------------------------------]
A[------------------------------------------------------------------------]
E[------------------------------------------------------------------------]

e[--h12--b12--b12---b12---b12---b12--b12--b12--b12--b12--b12--b12--b12-]
B[-----------------------------------------------------------------------]
G[-----------------------------------------------------------------------]
D[-----------------------------------------------------------------------]
A[-----------------------------------------------------------------------]
E[-----------------------------------------------------------------------]

e[-b10----10-----b10----12--b12---h12--10-----12--10--12--10--h10--b12--10-]
B[----------- 12----------------------------12-----------------------------]
G[-------------------------------------------------------------------------]
D[-------------------------------------------------------------------------]
A[-------------------------------------------------------------------------]
E[-------------------------------------------------------------------------]

e[--b12----10--b12----b12----17s14--b17--17s14--b17---17s14--------------]
B[-----------------------------------------------------------------------]
G[-----------------------------------------------------------------------]
D[-----------------------------------------------------------------------]
A[-----------------------------------------------------------------------]
E[-----------------------------------------------------------------------]

e[-b17------b22----22---22s19----------------------------------------------]
B[----------------------------22--19---------------------------------------]
G[-----------------------------------b21--h21--19----21----19-b21--b21-s21-]
D[-------------------------------------------------21----21----------------]
A[-------------------------------------------------------------------------]
E[-------------------------------------------------------------------------]

e[-----------------------------------------------------------------------]
B[-----------------------------------------------------------------------]
G[-----------------------------------------------------------------------]
D[---4--------------------------4-------------------------4--------------]
A[---2--------------------------2-------------------------2--------------]
E[-----------------------------------------------------------------------] 

This is a hard song, but listen to it to get it perfect...    Good Luck!
Comments