Ac Dc - This House Is On Fire Chords & Tabs

 

This House Is On Fire Chords & Tabs

Ac Dc Chords & Tabs

Version: 2 Type: Tab 0 ratings
1 star 2 stars 3 stars 4 stars 5 stars
comments

This House Is On Fire Tab

Song: This House is on Fire
Album: Flick of the Switch
Artist: AC/DC

Intro:
   
E---------------------------|
B---------------------------|
G----7------7------5-----5--| x4
D--5------5------5---5-8----|
A---------------------------|
E---------------------------|

Verse:
 
E---------------------------|
B---------------------------|
G----7------7------5-----5--| x6
D--5------5------5---5-8----|
A---------------------------|
E---------------------------|

Pre-Chorus:

E--2----3--2----3--2--|---------------------|
B--3----3--3----3--3--|---------------------|
G--2----2--2----2--2--|--2----3--2----3--2--|
D--0----0--0----0--0--|--3----3--3----3--3--|
A---------------------|--3----3--3----3--3--|
E---------------------|--1----1--1----1--1--|

Chorus:

E----------------------------|
B----------------------------|
G----------------3-3--5-5----| x4
D--5--5--5--5----3-3--5-5----|
A--5--5--5--5----1-1--3-3----|
E--3--3--3--3----------------|
  
Verse:
 
E---------------------------|
B---------------------------|
G----7------7------5-----5--| x6
D--5------5------5---5-8----|
A---------------------------|
E---------------------------|

Pre-Chorus:

E--2----3--2----3--2--|---------------------|
B--3----3--3----3--3--|---------------------|
G--2----2--2----2--2--|--2----3--2----3--2--|
D--0----0--0----0--0--|--3----3--3----3--3--|
A---------------------|--3----3--3----3--3--|
E---------------------|--1----1--1----1--1--|

Chorus:

E----------------------------|
B----------------------------|
G----------------3-3--5-5----| x4
D--5--5--5--5----3-3--5-5----|
A--5--5--5--5----1-1--3-3----|
E--3--3--3--3----------------|

Pre-Solo:

E----------------------------|
B----------------------------|
G--2-2-2--2-2-2--3-2----3-2--| x2
D--3-3-3--3-3-3--3-3----3-3--|
A--3-3-3--3-3-3--3-3----3-3--|
E--1-1-1--1-1-1--1-1----1-1--|

Solo:

Guitar 1

E----------------------------|
B----------------------------|
G----------------3----5------| x4
D--5--5--5--5----3----5------|
A--5--5--5--5----1----3------|
E--3--3--3--3----------------|

E--2----3--2----3--2--|---------------------|
B--3----3--3----3--3--|---------------------|
G--2----2--2----2--2--|--2----3--2----3--2--|
D--0----0--0----0--0--|--3----3--3----3--3--|
A---------------------|--3----3--3----3--3--|
E---------------------|--1----1--1----1--1--|

Guitar 2

E------------------------|-------------------------------------------|
B------------------------|--8----8---6-5------------------------6----|
G---------------------5--|---------7-----7-5-----5-------------------|
D--5~~----8-/10----8-----|-------------------8-----8-----------------|
A------------------------|-----------------------------8-------------|
E------------------------|-------------------------------------------|
[ Tab from: http://www.guitartabs.cc/tabs/a/ac_dc/this_house_is_on_fire_tab_ver_2.html ]
E------------------------------|-------8--------10--10-10-10--13-10--|
B------------------------------|--8~~-----8~~------------------------|
G--7p5-------5~~----5-------5--|-------------------------------------|
D------8p5h8----------8p5-8----|-------------------------------------|
A------------------------------|-------------------------------------|
E------------------------------|-------------------------------------|

E-----------10-----------------------|--20-18------------------------|
B--13p11h13-------13p11-------13-11--|-----------20----18-20--20-18--|
G-----------------------12-----------|--------------19---------------|
D------------------------------------|-------------------------------|
A------------------------------------|-------------------------------|
E------------------------------------|-------------------------------|

E-----------22~~~~--\\\----------------------------------------------|
B--20p18-------------------------------------------------------------|
G--------------------------------------------------------------------|
D--------------------------------------------------------------------|
A--------------------------------------------------------------------|
E--------------------------------------------------------------------|

Chorus:

Guitar 1

E----------------------------|      |--------------------------------|
B----------------------------|      |--------------------------------|
G----------------3-3--5-5----| x8   |------2-------------------------|
D--5--5--5--5----3-3--5-5----|      |------3--------5-----------5----|
A--5--5--5--5----1-1--3-3----|      |------3--------5-----------5----|
E--3--3--3--3----------------|      |------1--------3-----------3----| 

Guitar 2

E--10~~----10-----------------------|--15----15------15--15-15~~--\--|
B-------------11-8~~----11--b-(13)--|-----15------18-----------------|
G-----------------------------------|--------------------------------|
D-----------------------------------|--------------------------------|
A-----------------------------------|--------------------------------|
E-----------------------------------|--------------------------------|

E--15-------------------------------|--------15~~------15----15~~----|
B-----15-18-15----------------------|--18-18--------------18---------|
G--------------17--\--15---17-15~~--|--------------------------------|
D-----------------------------------|--------------------------------|
A-----------------------------------|--------------------------------|
E-----------------------------------|--------------------------------|

E--\-\-\-------------------------------------------------------------|
B-----\-\------------------------------------------------------------|
G--------\--------7~~----5-----5-------------------------------------|
D--------------------------8-----8-5--------------------8b-(10)-r-8--|
A------------------------------------8p5-----------------------------|
E----------------------------------------8--6--3~~-------------------|
Comments