Ac Dc - Thats The Way I Wanna Rock N Roll Chords & Tabs

 

Thats The Way I Wanna Rock N Roll Chords & Tabs

Ac Dc Chords & Tabs

Version: 2 Type: Tab 0 ratings
1 star 2 stars 3 stars 4 stars 5 stars
comments

Thats The Way I Wanna Rock N Roll Tab

This is a great song by Ac/Dc and this is my first tab so i hope you like it
Ac/DC kick @ss
Tabbed by: Sengine
Tunning : Standard

Riff 1
|-------------------------------------------|
|-------------------------------------------|
|-------------------------------------------|
|-------------------------------------------|
|-----5-6-7-------5-6-7---------------------|
|-5-9-------5-7-9-------5-------------------|
Riff 2              
|-----3-------------------------------------|
|-----2-------------------------------------|
|-2-2-3-------------------------------------|
|-2-2-0-------------------------------------|
|-0-0-------5-6-7-------5-6-7---------------|
|-------5-9-------5-7-9--------5------------|
    
Riff 3
|-----3-------------------------------------|
|-----2-------------------------------------|
|-2-2-3-------------------------------------|
|-2-2-0-------------------------------------|
|-0-0-------5-6-7-------5-6-7---------------|
|-------5-9-------5-7-9--------5------------|
      
        
Riff 4
|------3-------3-----3----------------------|
|------2-------2-2---2----------------------|
|-2----3--2----0-2---3-2-----2--2--2--------|
|-2----0--2------0---0-2-----2--2--2--------|
|-0-------0------------0-----0--0--0--------|
|-------------------------------------------|

Riff 5(This Part Shows Up in the solo and else where)
|-------------------------------------------|
|-------------------------------------------|
|-------------------------------------------|
|------5-6-7-------5-6-7--------------------|
|-5-9--------5-7-9-------5------------------|
|-------------------------------------------|
[ Tab from: http://www.guitartabs.cc/tabs/a/ac_dc/thats_the_way_i_wanna_rock_n_roll_tab_ver_2.html ]
Solos
-----5^------------------------------------|-3b-3-------------------------|
---------5-8-5-8-----5---------------------|------5-3-5-3-----------------|
-----------------5-7---5-7-5---------------|--------------4-2-0---0-------|
-----------------------------5-7-5--7~~~~--|--------------------2-0-------|
----------------------------------7--------|------------------------------|
-------------------------------------------|-------------------------3~~--|

-------------------------------------------|-------15------------------|
--3^---5~~-3----/7~~5----9^~---------------|-15-17----15-17------------|
--3^---5~~-3----/7~~5----9^~----7----------|-----------------16-14-----|
-----5-------5--------7-9---7-9------------|---------------------------|
-------------------------------------------|---------------------------|
-------------------------------------------|---------------------------|

---------------------------15-17b----------|------------------|
-15-12----12-15-15-12---12-----------------|------------------|
-------14-------------14-------------------|------------------|
-------------------------------------------|------------------|
-------------------------------------------|------------------|
-------------------------------------------|-5~~~~~~~~~~~-----|

-----------------------------5------------------|-/5b~~~-----5-8-----5-8-
-----------------------------5-7-5--------------|--------5-8-----5-8-----
-------------------------------7-5--------------|------------------------
------7-\-----7-\------7~~~\--------------------|------------------------
------------------------------------------------|------------------------
------------------------------------------------|------------------------

-----5-8---8-|
-5-8-----5---|
-------------|
-------------|
-------------|
-------------|

--8b-8b-8b-------8-5-----5--------------|
---------------------8-5---8-5----------|
-------------------------------7-5------|
-----------------------------------5-7--|
-------------------------------------7--|
-------------------------------------5--|



There you go solo's and all . Need To get ahold of me, get me at sengineb@hotmail.com
Comments