Ac Dc - Soul Stripper Chords & Tabs

 

Soul Stripper Chords & Tabs

Ac Dc Chords & Tabs

Version: 1 Type: Tab 0 ratings
1 star 2 stars 3 stars 4 stars 5 stars
comments

Soul Stripper Tab

tuning:standard
tabbed by:a crazy teenage rock and roll fan
artist:acdc
song title:soul stripper
written by:Angus Young, Malcom Young
album:'74 jailbreak
year: (recorded 1975, released 1984)

key to tablature:
h=hammer on
p=pull off
/=slide up
\=slide down
==let ring
~=vibrato
b=bend string up 
r=release bend
x=mute note

intro. (played by both guitars)
E|-----------------------------------------------------------------|
B|-----------------------------------------------------------------|
G|-4---2--------------------2---4---4---2--------------------2---4-|
D|-4---2---2---5-5-5-5-5-5--2---4---4---2---2---5-5-5-5-5-5--2---4-|
A|-2---0---2---5-5-5-5-5-5--0---2---2---0---2---5-5-5-5-5-5--0---2-|
E|---------0---3-3-3-3-3-3------------------0---3-3-3-3-3-3--------|

E|-------------------------------------------------|
B|-------------------------------------------------|
G|-4--7========4--7========4--7========4--7========|
D|-------------------------------------------------|
A|-------------------------------------------------|
E|-------------------------------------------------|

intro solo (played by guitar one)
guitar two will play the following while guitar one playes the solo
E|----------------|
B|----------------|
G|----------------|
D|----------------|
A|-0---2-2========|
E|----------------|repeat this throughout the solo

guitar solo one
E|--------------------------------------------------------------|
B|------------------10------------------------------------------|
G|-7-7-4========7b9----10p9-7--------------9b10-11p9p7---7------|
D|----------------------------7h9p7========------------9---9====|
A|--------------------------------------------------------------|
E|--------------------------------------------------------------|

E|------------------------------------------------------------|
B|------------------------------------12h14p12----12-12h15p12-|
G|-7h9p7====9h10p9-9h11p9-7h9p7----------------12-------------|
D|------------------------------7h9p7-------------------------|
A|------------------------------------------------------------|
E|------------------------------------------------------------|

E|-----------------------------------------------------------------------|
B|----------12====12h17p15p14\12----------------12h13/17-12-14-15-15-15==|
G|-14p13p11----------------------15p13p11-11h15--------------------------|
D|-----------------------------------------------------------------------|
A|-----------------------------------------------------------------------|
E|-----------------------------------------------------------------------|

E|-------------------------------------------------13b14-14====|
B|-12h15p12h15p12h15p12h15p12-------11b12-12-12-12-------------|
G|----------------------------15-12----------------------------|
D|-------------------------------------------------------------|
A|-------------------------------------------------------------|
E|-------------------------------------------------------------|

E|-13b14-14-12-14-12-14-12h14====17-14-19-19====|
B|----------------------------------------------|
G|----------------------------------------------|
D|----------------------------------------------|
A|----------------------------------------------|
E|----------------------------------------------|

E|-19-18-19-18-19-18-19-19h13====19p17h19p17----------------|
B|-------------------------------------------17p15-17b19r17-|
G|----------------------------------------------------------|
D|----------------------------------------------------------|
A|----------------------------------------------------------|
E|----------------------------------------------------------|

E|----------------19-17-19-17-19-17-19-19p15p14-23-23-23====|
B|-15-17/19\17-15-------------------------------------------|
G|----------------------------------------------------------|
D|----------------------------------------------------------|
A|----------------------------------------------------------|
E|----------------------------------------------------------|

E|-19p17----17-19------------------------------------------------|
B|-------19-------------------------------9p8p7====--------------|
G|----------------7========2-2-4-4========---------9====7====----|
D|---------------------------------------------------------------|
A|-----------------------------------------------------------2/7-|
E|---------------------------------------------------------------|
end solo

verse (played by both guitars)
E|--------------------------------------------------------|
B|--------------------------------------------------------|
G|-12b13r12--------12b13r12--------14----16====12==14==16-|
D|--------------------------------------------------------|
A|--------------------------------------------------------|
E|--------------------------------------------------------|

pre-chorus (played by both guitars)
E|------------------------------------------|
B|------------------------------------------|
G|--------------------2---4---2---4---2---4-|
D|-5-5-5-5-5-5-5-5----2---4---2---4---2---4-|
A|-5-5-5-5-5-5-5-5----0---2---0---2---0---2-|
E|-3-3-3-3-3-3-3-3--------------------------|

E|------------------------------------------|
B|------------------------------------------|
G|--------------------2---4---2---4---2---4-|
D|-5-5-5-5-5-5-5-5----2---4---2---4---2---4-|
A|-5-5-5-5-5-5-5-5----0---2---0---2---0---2-|
E|-3-3-3-3-3-3-3-3--------------------------|

chorus (played by both guitars)
E|---------------------------------------|
B|---------------------------------------|
G|-4--------2-------4---4----------------|
D|-4--------2---2---4---4----------------|
A|-2--------0---2---2---2----0-4-5-6-7-0-|
E|--------------0------------------------|

E|---------------------------------------|
B|---------------------------------------|
G|-4--------2-------4---4----------------|
D|-4--------2---2---4---4----------------|
A|-2--------0---2---2---2----0-4-5-6-7-0-|
E|--------------0------------------------|

then repeat the verse, prechorus and chorus again

main solo (played by guitar one)
guitar two will play the chorus riff over the solo

guitar solo two
E|------------------------------------------|
B|-------------------------12-10-8----------|
G|---7-9--9b10r9-7-7h9p7\4---------10-8-6---|
D|-9----------------------------------------|
A|------------------------------------------|
E|------------------------------------------|
[ Tab from: http://www.guitartabs.cc/tabs/a/ac_dc/soul_stripper_tab.html ]
E|-------------------------------------------------------------------|
B|-10-9-7-10---------------------------------------------------------|
G|-----------10-9-7-10-----------------------15-14-12-14b15r14-15====|
D|---------------------10-9-7-10-------------------------------------|
A|-------------------------------10-9-7-10---------------------------|
E|-------------------------------------------------------------------|

E|-------------20====---------------------------------------------|
B|-18b19-19====------12-10--------10h12p10------12-10----12-10----|
G|-------------------------11--11----------11p9-------11-------11-|
D|----------------------------------------------------------------|
A|----------------------------------------------------------------|
E|----------------------------------------------------------------|

E|-----------------------------------------------------------------|
B|-12/17-15-12--15-12====14h15p14----------------------------------|
G|--------------------------------16p14h16-------------------------|
D|-----------------------------------------16-16p14h16-------------|
A|-----------------------------------------------------16-16p14h16-|
E|-----------------------------------------------------------------|

E|-------------------------------------------|
B|-------------------------15p14p12-17-17====|
G|----14-16====12b15-12b15-------------------|
D|-16----------------------------------------|
A|-------------------------------------------|
E|-------------------------------------------|

E|-------------------------------------------------------------------|
B|------------------------15/17-15p14p12-17====----------------------|
G|-----11--16-14p12----16----------------------14-16-16--14----16====|
D|-9-9--------------14--------------------------------------16-------|
A|-------------------------------------------------------------------|
E|-------------------------------------------------------------------|

E|-------------------------------------------------------------19====|
B|-------------------------------------------------------------------|
G|-15b16====16p15p14-------------------------------------------------|
D|-------------------16p15p14----------------14====14-14-14====------|
A|----------------------------16p15p14-17-14-------------------------|
E|-------------------------------------------------------------------|

E|---------------------------------------------------------------|
B|-19p17h19p17h19p17h19p17h19p17h19p17h19p17h19p17h19---12-12====|
G|---------------------------------------------------------------|
D|---------------------------------------------------------------|
A|---------------------------------------------------------------|
E|---------------------------------------------------------------|

E|-------------------------19====19-21-19----------24====24====\|
B|-12-17-12-17-12-12====\-----------------21-20-19--------------|
G|--------------------------------------------------------------|
D|--------------------------------------------------------------|
A|--------------------------------------------------------------|
E|--------------------------------------------------------------|
end solo

then guitar two will continue to play the chorus riff and the lyrics
will kick in and guitar one will play the outro solo.

guitar solo three
E|-19====17===19===19===17===19===17===16===19===17===16===19===|
B|--------------------------------------------------------------|
G|--------------------------------------------------------------|
D|--------------------------------------------------------------|
A|--------------------------------------------------------------|
E|--------------------------------------------------------------|

E|-17===16===19===17===16===19===17===16===19===17===16===19===|
B|-------------------------------------------------------------|
G|-------------------------------------------------------------|
D|-------------------------------------------------------------|
A|-------------------------------------------------------------|
E|-------------------------------------------------------------|

E|-17h19p17h19-19--------------------------------------------------|
B|----------------17h19p17h19-19-----------------------------------|
G|-------------------------------15h17p15-14-12--18b19-19p18p16p14-|
D|-----------------------------------------------------------------|
A|-----------------------------------------------------------------|
E|-----------------------------------------------------------------|

E|------------------------------------------------14-------14-------|
B|-15h17p15----15----15-12-12-12-15-15-12-12---12----12-12----12-12-|
G|----------16----16------------------------------------------------|
D|------------------------------------------------------------------|
A|------------------------------------------------------------------|
E|------------------------------------------------------------------|

E|-14h15p14----------------19-17-19--12-17h19p17h19-13-12-|
B|----------12-12-12-14b15--------------------------------|
G|--------------------------------------------------------|
D|--------------------------------------------------------|
A|--------------------------------------------------------|
E|--------------------------------------------------------|

E|-21p20h21p20h21p20h21---24---23---21---24--23-21-|
B|-------------------------------------------------|
G|-------------------------------------------------|
D|-------------------------------------------------|
A|-------------------------------------------------|
E|-------------------------------------------------|

E|-17h19h21--------------19p18-------19p18-------12-14-12-14-|
B|----------12p10----10--------19p17-------19p17-------------|
G|----------------11-----------------------------------------|
D|-----------------------------------------------------------|
A|-----------------------------------------------------------|
E|-----------------------------------------------------------|

E|-14-16p14p12--------------------------|
B|-------------15p14p12-10--12b-12b-12b-|
G|--------------------------------------|
D|--------------------------------------|
A|--------------------------------------|
E|--------------------------------------|
end solo

small ending (played by guitar one(guitar two fads out))
E|---------15\|
B|------------|
G|------------|
D|------------|
A|-0-1-2-3----|
E|------------|

that should take care of the entire thing. 
thi is one of my best tabs, enjoy!
Comments