Ac Dc - Sink The Pink Chords & Tabs

 

Sink The Pink Chords & Tabs

Ac Dc Chords & Tabs

Version: 1 Type: Tab 0 ratings
1 star 2 stars 3 stars 4 stars 5 stars
comments

Sink The Pink Tab

|---------------------------------|
|---------------------------------|
|--------------------------2------|
|------0--1--2----0--1--2--2------|
|---2----------------------0------|
|--------------3------------------|

Intro (x2):
|-------------------------------------------------------------------------|
|-------------------------------------------------------------------------|
|-13-14-16-16--14-14--13-13-11-13-----------------------------------------|
|---------------------------------12-12-12-12-12-12-14-16-14-14-14-14-14--|
|-------------------------------------------------------------------------|
|-------------------------------------------------------------------------|

|--------------------------|
|--------------------------|
|--------------------------|
|--14-14-14-14-14-14-14----|
|--------------------------|
|--------------------------|


During Intro Malcolm Plays:

|---------------------------------|
|---------------------------------|
|-----2---------------------------|
|-----2---------------------------|
|-----0---------------------------|
|---------------------------------|
[ Tab from: http://www.guitartabs.cc/tabs/a/ac_dc/sink_the_pink_tab.html ]
Later: (for verse)
|---------------------------------|
|---------------------------------|
|--9---9---7---6----6--7--6--9--9-|
|--9---9---7---6----6--7--6--9--9-|
|--7---7---5---4----4--5--4--7--7-|
|---------------------------------|

She say she'll rough you up...
|------------------------------------------------------------|
|--3--3-----3--3-----3--3--3---3--3-----3--3-----3--3--------|
|--2--2--2--2--2--2--2--2--2---2--2--2--2--2--2--2--2--2-----|
|--0--0--2--0--0--2--0--0--0---0--0--2--0--0--2--0--0--2-----|
|--------0--------0------------------0--------0--------0-----|
|------------------------------------------------------------|

|-------------------------------------------------------------|
|-------------------------------------------------------------|
|---9----7--6--7---7--6--9---7--5--3--------------------------|
|---9----7--6--7---7--6--9---7--5--3--------0--1--3-----------|
|---7----5--4--5---5--4--7---5--3--1------2-------------------|
|----------------------------------------------------3--------|

Repeat same as on Verse.

Ending chorus
-3~-0----------------------------|
------3~-0-----------------------|
------------2~-0-----------------|
-------------------2-------------|
-------------------2-------------|
-------------------0-------------|

Then repeat verse
Comments