Ac Dc - Sin City Chords & Tabs

 

Sin City Chords & Tabs

Ac Dc Chords & Tabs

Version: 4 Type: Bass Tab 0 ratings
1 star 2 stars 3 stars 4 stars 5 stars
comments

Sin City Bass Tab

   
AC/DC
POWER AGE
STANDARD TUNING
E,A,D,G

(THIS IS THE LIVE VERSION THAT I TABBED OFF 'AC/DC LIVE'.

INTRO
G----------------|---------|  |---------------|  |-------------------|
D----------------|-2---0---|  |-2---0---------|  |-2---0-0-0-000-0-00|
A-----2-5--0-2---|---2---0~|  |---2---0-------|  |---2---------------|
E-3-5---------0~~|---------|x3|---------0-3-0-|x4|-------------------|
cont'D
G-----------------|
D-0---------------|
A---7-7-6-5-4-3-2-|
E-----------------|

VERSE
G--------------------------------------------------------------------------|
D--------------------------------------------------------------------------|
A--------------------------------------------------------------------------|
E-0-0-0-0-0-0-0-0-0-0-0-0-etc.-3-3-3-3-3-3-3-3-3-4-4-5-5-6-6-7-7-7-7-7-7-7-|
                 CHORUS
G---------------|---------------|             |----------------------|
D---------------|-2---0---------|             |-2---0-0-0-000-0-00-0-|
A-2-2-3-3-4-4-5-|---2---0-------|             |---2------------------|
E---------------|---------0-3-0-|x8 (i think!)|----------------------|

G---------------|
D---------------|
A-7-7-6-5-4-3-2-|
E---------------|
[ Tab from: http://www.guitartabs.cc/tabs/a/ac_dc/sin_city_btab_ver_4.html ]
GUITAR SOLO
G--------------------------------------------------------------------|
D--------------------------------------------------------------------|
A-------------------------2-2-3-3-4-4-5------------------------------|
E-0-0-0-0-0-0-0-0-0-0-0-etc.-----------0-0-0-0-0-0-0-0-0-0-0-0-0-etc.|

G----------------------------------|
D----------------------------------|
A----------------------------------|
E-3-3-4-4-5-5-6--6-7-7-8-8-9--9-10-|

BASS SOLO
G---------------|   |---------------|
D-2---0---------|   |-2---0---------|
A---2---0-------|   |---2---0-------|
E---------0-3-0-|x15|---------0-3-0-| 
                 play this a couple of times when drums come back in.
VERSE
G---------------------------------------------------------|---------------|
D---------------------------------------------------------|---------------|
A---------------------------------------------------------|-2-2-3-3-4-4-5-|
E-3-3-3-3-3-3-3-3-3-3-3-3-3-4-4-5-5-6-6-7-7-7-7-7-7-7-7-7-|---------------|
 (SLIGHTLY DIFFERENT VERSE.)

CHORUS                                   OUTRO
G---------------|-----------------------|---------------------|
D-2---0---------|-2---0-0-0-000-0-00-0~~|---------------------|
A---2---0-------|---2-------------------|------2-5---0-2------|
E---------------|-----------------------|-3-5--------------0~~|


~ - LET NOTE RING


PLEASE NOTE: ON THE VERSES AND GUITAR SOLO I DONT KNOW THE PRCISE AMOUNT OF TIMES THE NOTES ARE PLAYED.
THANKS.
Comments