Ac Dc - Shot Down In Flames Chords & Tabs

 

Shot Down In Flames Chords & Tabs

Ac Dc Chords & Tabs

Version: 2 Type: Tab 0 ratings
1 star 2 stars 3 stars 4 stars 5 stars
comments

Shot Down In Flames Tab

Tabbed By: Me...THE PURPLE RABBIT.
Album : Highway To Hell (but, Of course you all know that... Right?)
Mail: malibubeachnightmare@hotmail.com


Intro:
e|---------------------------------------------------------|
b|-----3------3-----------3-----3-2------------------------|
g|-0-2-2--0-2-2-------0-2-2-0-2-2-2------------------------|
d|-0-0-0--0-0-0-------0-0-0-0-0-0-2------------------------|
a|--------------------------------0------------------------|
e|---------------------------------------------------------|

e|---------------------------------------------------------|
b|-9--9--7---7--7--5---------------------------------------|
g|-9--9--7---7--7--5---------------------------------------|
d|-7--7--5---5--5--3---------------------------------------|
a|---------------------------------------------------------|
e|---------------------------------------------------------|
[ Tab from: http://www.guitartabs.cc/tabs/a/ac_dc/shot_down_in_flames_tab_ver_2.html ]
Verse:
e|---------------------------------------------------------|
b|-9-9-7--7-7-5----9-9-7--7-7------------------------------|
g|-9-9-7--7-7-5----9-9-5--7-7------------------------------|
d|-7-7-5--5-5-3----7-7-5--5-5------------------------------|
a|---------------------------------------------------------|
e|---------------------------------------------------------|

Fill:
e|-------------------3-------------------------------------|
e|-----3-----3-----3-3-------------------------------------|
e|-0-2-2-0-2-2-0-2-2-2-------------------------------------|
e|-0-0-0-0-0-0-0-0-0---------------------------------------|
e|---------------------------------------------------------|
e|---------------------------------------------------------|

Refrain/Rhytm during Solo:
e|---------------------------------------------------------|
e|---------------------------------------------------------|
e|-9-9-7--7-7-5--------------------------------------------|
e|-9-9-7--7-7-5--------------------------------------------|
e|-7-7-5--5-5-3--------------------------------------------|
e|---------------------------------------------------------|
Comments