Ac Dc - Shot Down In Flames Chords & Tabs

 

Shot Down In Flames Chords & Tabs

Ac Dc Chords & Tabs

Version: 2 Type: Bass Tab 0 ratings
1 star 2 stars 3 stars 4 stars 5 stars
comments

Shot Down In Flames Bass Tab

##NOTES##
This song is in standard tuning. Notation is h- hammer on,
*- harmonic
**Performance in Let There Be Rock, Live In Paris.

**Intro
G||-------------------|-----------||
D||-------------------|-----------||
A||-----7* (tune up)--|-----------||
E||--5*---------------|--5--5-5/--||

G||---------------------|---------------------||
D||---------------------|---------------------||
A||---------------------|-5-5-5-5-5-5-5-5-5-5-||
E||-5-5-5-5-5-5-5-5-5-5-|---------------------||

Then in the main riff play this.
[ Tab from: http://www.guitartabs.cc/tabs/a/ac_dc/shot_down_in_flames_btab_ver_2.html ]
G||-----------|-----------||
D||-----------|-----------||
A||-----------|--5--5--3--||
E||--5--5--3--|-----------||

Next is the solo, you can use these two riffs for 
the solo.

G||-----------|-----------||
D||-----------|-----------||
A||-----------|--5--5--3--||
E||--5--5--3--|-----------||

G||---------------------|---------------------||
D||---------------------|---------------------||
A||---------------------|-5-5-5-5-5-5-5-5-5-5-||
E||-5-5-5-5-5-5-5-5-5-5-|---------------------||

Use the second line for the outro.
Comments