Ac Dc - Shoot To Thrill Chords & Tabs

 

Shoot To Thrill Chords & Tabs

Ac Dc Chords & Tabs

Version: 4 Type: Tab 0 ratings
1 star 2 stars 3 stars 4 stars 5 stars
comments

Shoot To Thrill Tab

   
    There's a couple tabs for this song, but they're all wrong!  I'm sure that this is 
percent right(Hey, this is AC/DC were talking about.  They're worth more than 100 
 Please rate:)

The System:
h=hammer on

Tuning:eBGDAE


    [Intro]   (This Riff is also the Verse)
e----------|--3-------3--------------||
B----------|--3---3---3---3----------||
G--------2-|--0---2---0---2--2----2--||
D--2-2---2-|--0---0---0---0--0----2--||
A--0-3-4-0-|--x-x-0-x-x-x-0--0-4h-0--||
E----------|--3-------3--------------||
 Repeat 2x...Then play this Riff until verse

[ Tab from: http://www.guitartabs.cc/tabs/a/ac_dc/shoot_to_thrill_tab_ver_4.html ]
    [Pre-Chorus]
e--------------------------------||------------------------------||
B--------------------------------||----8-8---8-8---8-8---8-8-8-8-||
G--5-----5----5-----5----7-----7-||----7-7---7-7---7-7---7-7-7-7-||
D--5--5--5----5--5--5----7--7--7-||----6-6---6-6---6-6---6-6-6-6-||
A--3--5--3----3--5--3----5--7--5-||----7-7---7-7---7-7---7-7-7-7-||
E-----3----------3----------5----||--0-----0-----0-----0---------||
  [C][G][C]  [C][G][C]  [D][A][D]      [E]

     [Chorus]
e-------------------------------------------------------||
B-------------------------3-3-3-3-3-3-------------------||
G--2-2-2-2-2--0-0-0-0-0---2-2-2-2-2-2-------------------||
D--2-2-2-2-2--0-0-0-0-0---0-0-0-0-0-0-------------------||
A--0-0-0-0-0--0-0-0-0-0------*Play-until-Chorus-repeats*||
E-------------3-3-3-3-3---------------------------------||

    [Riff after Chorus]
e-------------------------------||
B-------------------------------||
G--2-2-2----------2-2-2---------||
D--2-2-2--2-2-----2-2-2--2-2----||
A--0-0-0--0-3-4h--0-0-0--0-3-4h-||
E-------------------------------||
Comments