Ac Dc - Shoot To Thrill Chords & Tabs

 

Shoot To Thrill Chords & Tabs

Ac Dc Chords & Tabs

Version: 1 Type: Bass Tab 0 ratings
1 star 2 stars 3 stars 4 stars 5 stars
comments

Shoot To Thrill Bass Tab

Shoot to thrill by AC/DC
Standard Tuning
 
|----------|------|--------|
|----------|------|--------|
|----------|------|--------|
|----------|------|--------|

            x4
|------------|-----------------|-----------------|
|------------|-7-7-7-7-7-7-7-7-|-7-7-7-7-7-7-7-7-|
|------------|-----------------|-----------------|
|------------|-----------------|-----------------|

|-----------------|-----------------|-----------------|
|-7-7-7-7-7-7-7-7-|-7-7-7-0-0-------|-----------------|
|-----------------|-----------4-0-0-|-0-0-0-0-0-0-0-0-|
|-----------------|-----------------|-----------------|
   
||------------------|------------------||-----------------|
||o-----------------|-----------------o||-----------------|
||o-0-0-0-0-0-0-0-0-|-0-0-0-0-0-0-0-0-o||-0-0-0-0-5-4-0-0-|
||------------------|------------------||-----------------|
  
    (Verses)
||------------------|-----------------|-----------------|
||o-----------------|-----------------|-----------------|
||o-0-0-0-0-0-0-0-0-|-0-0-0-0-0-0-0-0-|-0-0-0-0-0-0-0-0-|
||------------------|-----------------|-----------------|

|-----------------|-----------------|-----------------|
|-----------------|-----------------|-----------------|
|-0-0-0-0-0-0-0-0-|-0-0-0-0-0-0-0-0-|-0-0-0-0-0-0-0-0-|
|-----------------|-----------------|-----------------|
 
|-----------------|-----------------||-----------------|
|-----------------|-----------------||-----------------|
|-0-0-0-0-0-0-0-0-|-0-0-0-0-0-0-0-0-||-3-3-3-3-3-3-3-3-|
|-----------------|-----------------||-----------------|

|-----------------|-----------------|-----------------|
|-----------------|-----------------|-----------------|
|-3-3-3-3-3-3-3---|-3-3-3-3-3-3-3-3-|-3-3-3-3-3-------|
|---------------3-|-----------------|-----------0-3s5-|

|-------------------|-----------------|--------------------|
|-------------------|-----------------|-----5-5---5-5---5--|
|-3h5-5-5-5-5-5-5-5-|-5-5-5-5-5-5-5-7-|-(7)-----7-----7----|
|-------------------|-----------------|--------------------|

(Chorus)  
|-------------------||-----------------|------------------|
|-5---5-5---5-7p5---||-----------------|------------------|
|---7-----7-------7-||-0-0-0-0-0-0-0---|---------------5--|
|-------------------||---------------3-|-3-3-3-3-3-3-3----|

|-----------------|-----------------|-----------------|
|-----------------|-----------------|-----------------|
|-5-5-5-5-5-5-5-5-|-5-5-5-5-5-3-4-0-|-0-0-0-0-0-0-----|
|-----------------|-----------------|-------------0-3-|


|-----------------|-----------------|----------------|
|-----------------|-----------------|---4--5---6-7-4-|
|---------------3-|-5-5-5-5-5-5-5-5-|-5------5-------|
|-3-3-3-2-3-3-3---|-----------------|----------------|

|-----------------|-----------------|-----------------|
|-----------------|-----------------|-----------------|
|-0-0-0-0-0-0-0---|---------------5-|-0-0-0-0-0-0-0---|
|---------------3-|-3-3-3-3-3-3-3---|---------------3-|

|------------------||-----------------|-----------------|
|-----------------o||-----------------|-----------------|
|---------------5-o||-0-0-0-0-0-0-0-1-|-2-2-2-1-2-2-2-5-|
|-3-3-3-3-3-3-3----||-----------------|-----------------|

                          To Coda
|-----------------|-----------------|-----------------|
|-----------------|---4-4-5-5-6-6-7-|-----------------|
|-5-5-5-5-5-5-5-5-|-5---------------|-0-0-0-0-0-0-----|
|-----------------|-----------------|-------------0-3-|

|-----------------|----------|-------------|
|-----------------|----------|-------------|
|-----------------|----------|-------------|
|-3-3-3-3-3-3-3-3-|-5--------|-5---------0-|
[ Tab from: http://www.guitartabs.cc/tabs/a/ac_dc/shoot_to_thrill_btab.html ]
|---------------|-------------|---------------|
|---------------|-------------|---------------|
|---------------|-------------|---------------|
|-(0)-----------|-----------0-|-(0)-----------|

|--------------|-------------------|-----------------|
|--------------|-----5-5---5-5---5-|-5---5-5---------|
|--------5-6-7-|-(7)-----------7---|---7-------5-7---|
|--------------|-------------------|---------------0-|

(Interlude)
|-------------------|-----------------||------------------|
|-------------------|-----------------||o-----------------|
|-------------------|-----------0-0---||o-0-0-0-0-0-0-0-0-|
|-(0)-3-3-0-3-3-0-3-|-3-0-4-4-0-----4-||------------------|

(During Solo)
|------------------||-----------------|-----------------|
|-----------------o||-----------------|-----------------|
|-0-0-0-0-5-4-0-0-o||-3-3-3-3-3-3-3-3-|-3-3-3-3-3---0---|
|------------------||-----------------|-----------3---3-|

|-----------------|-----------------|--------------------|
|-----------------|-----------------|--------------------|
|-3-3-3-3-3-3-3-3-|-3-3-3---------0-|-3h5-5-5-5-5-5-5-5--|
|-----------------|-------0-1-0-4---|--------------------|

D.S. al Coda
|-----------------|-------------------|-----------------||
|-----------------|-----5-5---5-5---5-|-5---------------||
|-5-5-5-5-5-5-5-7-|-(7)-----7-----7---|-------------0---||
|-----------------|-------------------|---0-3-3-0-4---0-||

|----------|----------|----------|--------||
|----------|----------|----------|--------||
|-0--------|----------|-5--------|-(5)----||
|----------|-3--------|----------|--------||
 
|---------|
|---------|  x15
|---------|
|---------|

|-------------------|----------------|--------------|
|-------------------|----------------|--------------|
|-----------------0-|-(0)-0----0-----|--------------|
|---0-1-2-(2)-3-4---|----------------|---3----3-----|

|--------------|--------------|--------------|
|--------------|--------------|--------------|
|---5----5-----|---5----5-----|---0----0-----|
|--------------|--------------|--------------|

|--------------|--------------|------------------|
|--------------|--------------|------------------|
|---3----3-----|---5----5-----|------------------|
|--------------|--------------|---1-2-3-(3)-4--5-|

|-----------------|-----------------|-----------------|
|-----------------|-----------------|-----------3-4---|
|-0-0-0-0-0-x-0---|---------------3-|-5-5-5-5-5-----5-|
|---------------2-|-x-3-3-3-3-3-3---|-----------------|

|-----------------|-----------------|-----------------|
|-----------------|-----------------|-----------------|
|-5-5-5-0-5-----0-|-0-0-x-0-0-0-x---|---------------3-|
|-----------0-3---|---------------3-|-3-3-x-2-3-3-3---|

(Outro)
|-----------------|-------------------||------------------|
|-----------------|-------------------||o-----------------|
|-5-5-5-5-5-5-5-5-|-5-----------------||o-0-0-0-0-0-0-0-2-|
|-----------------|---0-1-2-(2)-3-3-4-||------------------|

|-----------------|-----------------|------------------||
|-----------------|-----------------|-----------------o||
|-2-2-2-2-2-2-2-5-|-5-5-5-5-5-5-5-5-|-5-5-5-5-5-5-5---o||
|-----------------|-----------------|---------------4--||

|-----------------|-----------------|-----------------|
|-----------------|-----------------|-----------------|
|-0-0-0-0-0-0-0-2-|-2-2-2-2-2-2-2-4-|-5----5-(5)-5-5--|
|-----------------|-----------------|-----------------|

|-----------------|-----------------|-----------------|
|-----------------|-----------------|-----------------|
|-(5)-5-5-5-------|-5----5-(5)-5-5--|-(5)-5-5-5-------|
|-----------3--3--|-----------------|-----------3--3--|

|--------------|--------------:------|
|--------------|--------------:------|
|-5----5----5--|-(5)----------:------|
|--------------|--------3--3--:-5----|

|-------------:------------*|
|-------------:------------*|
|-------------:------------*|
|-(5)----(5)--:-5----------*|

Thanks, please rate it after you learn it.
_TheBassist01_
Comments