Ac Dc - Shook Me All Night Long Chords & Tabs

 

Shook Me All Night Long Chords & Tabs

Ac Dc Chords & Tabs

Version: 2 Type: Tab 10 ratings
1 star 2 stars 3 stars 4 stars 5 stars
comments

Shook Me All Night Long Tab

   
Intro

e|3--------5--3-3--3-2----2-------2------------|
B|3--------3--3-3------3--3-------3--------3---|
G|------------------------2-------2------------|
D|------------------------0---3/4-0---3/4-----0|
A|--0-0-0-0------------------------------------|
E|---------------------------------------------|

e|3--------5--3--3-2----2|
B|3--------3--3------3--3|
G|----------------------2|
D|----------------------0|
A|--0-0-0-0--------------|
E|-----------------------|


Verse
[ Tab from: http://www.guitartabs.cc/tabs/a/ac_dc/shook_me_all_night_long_tab_ver_2.html ]
  G     C C  G C G D      G G C G C
e|3-----0-0--3-0-3-2------3-3-0-3-0| 
B|3-----1-1--3-1-3-3------3-3-1-3-1|
G|0-----0-0--0-0-0-2------0-0-0-0-0|   Repeat many times
D|0-----2-2--0-2-0-0------0-0-2-0-2| 
A|2-----3-3--2-3-2--------2-2-3-2-3| 
E|3----------3---3--------3-3---3--|  


Chorus

  G                 D
e|2-----------------2----------------|
B|3-----------------3----------------|
G|0----------0---0--2-----------0---0| Repeat at least 2 times
D|0---------2---0---0----------2---0-|
A|2---0-2-3----2----------0-2-3---2--|
E|3----------------------------------|

Comments