Ac Dc - Shook Me All Night Long Correct Chords & Tabs

 

Shook Me All Night Long Correct Chords & Tabs

Ac Dc Chords & Tabs

Version: 1 Type: Tab 1 rating
1 star 2 stars 3 stars 4 stars 5 stars
comments

Shook Me All Night Long Correct Tab

-3------5--3---3---3------2--|---2--------------2-----------------------------
-3------3--3---------3----3--|---3--------3-----3-----------------------------
-0------0--0-0---0--------2--|---2--------------2-----------------------------
--------------------------0--|-3-0----3h4---3-0-0-----------------------------
-----------------------------|------------------------------------------------
-----------------------------|------------------------------------------------
intro                        *this part is played on the first time only

-----------------------------|------------------------------------------------
-----------------------------|------------------------------------------------
-----------------------------|------------------------------------------------
----5-5---5---7------7----7--|------------------------------------------------
-5--3-3-5-3-5-5--5-5-5--5-5--|------------------------------------------------
-3------3---3----3-3----3----|------------------------------------------------
  verse riff  *before the chorus stay in D5 a little longer

---3--------------3---------3|--------2-----------3------3------3-------------
---3--------------3---------3|--------3-----------3------3------3-------------
---0------------0---------0--|----2---2----------0------0-------0-------------
---0-------------------------|--0---0-0---------------------------------------
---x----0-2-3---------2------|------------0-2-3------2-------2----------------
-3-3-------------------------|------------------------------------------------
   Chorus
[ Tab from: http://www.guitartabs.cc/tabs/a/ac_dc/shook_me_all_night_long_correct_tab.html ]
---------3--------------------------------------------------------------------
-----------3-6----------------------------------3-----------------------------
---5b7---------5b7-3----------------------------3--------3--------------------
---------------------5---5----5--3-----------------5---5----------------------
-----------------------5-----------5--3--------------5------------------------
--------------------------------------------6-3-------------------------------
  solo

-----------------------------10-----------------------------------------------
-----6-6-----8-8----8-10hb12----12rb10-8---11b13-11--8---8--------------------
--/7------/9------9------------------------------------9------9---------------
------------------------------------------------------------------------------
------------------------------------------------------------------------------
------------------------------------------------------------------------------


--------------15--------------------------------------------------------------
--18b20----------15-18--------------17----------18--------18------------------
-----------------------17b19--15----17-15-17b19----17hb19----19rb17-15--------
---------------------------------17------------------------------------17-----
------------------------------------------------------------------------------
------------------------------------------------------------------------------


-----------------------18b20--18--17b19--15--17----15-------15----------------
-17--15--17--15--\--15--------------------------17----18b20----18-------------
-17--15--17--15--\------------------------------------------------------------
------------------------------------------------------------------------------
------------------------------------------------------------------------------
------------------------------------------------------------------------------


------------------------15----15--17b18--15-----------------------------------
-------------------/17-----17-------------------------------------------------
--17b19-15-17b19--------------------------------------------------------------
------------------------------------------------------------------------------
------------------------------------------------------------------------------
------------------------------------------------------------------------------
Comments