Ac Dc - Shes Got Balls Chords & Tabs

 

Shes Got Balls Chords & Tabs

Ac Dc Chords & Tabs

Version: 2 Type: Tab 0 ratings
1 star 2 stars 3 stars 4 stars 5 stars
comments

Shes Got Balls Tab

ac/dc-she's got balls (version2).
Tabbed by kuchel@euroweb.sk.
  


*****  AC/DC  *****
*******************
* She´s got balls *
******************* 

Written by Angus Young, Malcolm Young & Bon Scott
(From the USA album High Voltage or Australian TNT)
>>>Tabbed by KUCO<<<  

   Intro & Verse                                            
E||----------------------|------------------------|---------------------|-------------------------||
B||----------------------|-5----------------------|---------------------|-7-(5)-------------------||
G||*---------------------|-5----------------------|---------------------|-7--5-------------------*||
D||*-5h7--7----7----7----|(5)----7----7----7--5---|-5h7--7----7----7----|(7)-5----7----7----7--5-*||
A||--0----0----0----0----|-------0----0----0--0---|-0----0----0----0----|---------0----0----0--0--||
E||----------------------|------------------------|---------------------|-------------------------||


 Pre-Chorus:                                                           
|-------------------|-------------------|--------------------|
|-------------------|-------------------|--------------------|
|-------------------|-------------------|----------5----5----|
|--3----------------|--5----------------|----------5----5----|
|--3----------------|--5----------------|----------3----3----|
|--1----------------|--3----------------|--------------------|

[ Tab from: http://www.guitartabs.cc/tabs/a/ac_dc/shes_got_balls_tab_ver_2.html ]
  Chorus:                                                
|-----------------------|-----------------------|
|-----------------------|-----------(5)--(5)----|
|*-(2)------------------|------------5----5----*|
|*--2----2----2----2----|--2----2----5----5----*|
|---0----0----0----0----|--0----0----3----3-----|
|-----------------------|-----------------------|
  
                                                  
|-----------------------|-----------------------||
|-----------------------|-----------(5)-(5)-(5)-||
|--(2)------------------|------------5---5---5--||
|---2----2----2----2----|--2----2----5---5---5--||
|---0----0----0----0----|--0----0----3---3---3--||
|-----------------------|-----------------------||

   3rd Verse (Malcolm):       
|----------------------|---------------------||
|----------------------|-(5)------7----------||
|*---------------------|--5-------7---------*||
|*-5h7-----------------|--5------(0)--------*||
|--0-------------------|---------------------||
|----------------------|---------------------||


                              

Lyrics:

She's got style that woman
Makes me smile that woman
She's got spunk that woman
Funk that woman
She's got speed my babe 
Got what I need my babe
She's got the ability
To make a man outta me

[CHORUS]

But most important of all
Let me tell you
My lady's got balls
She's got balls

She's got soul my lady
Likes to crawl my lady
All around the floor on her hands and knees
Oh because she likes toplease me

[CHORUS]

And she's got taste my lady
Pace my lady
Makes my heart race
With her pretty face
She's got balls my lady
Likes to crawl my lady
Hands and knees all aroundthe floor
No one has to tell her whata fella is for 

[CHORUS]

 
:: Ultimate Guitar Archive :: 
http://www.ultimate-guitar.com 

Comments