Ac Dc - Shake A Leg Chords & Tabs

 

Shake A Leg Chords & Tabs

Ac Dc Chords & Tabs

Version: 2 Type: Bass Tab 0 ratings
1 star 2 stars 3 stars 4 stars 5 stars
comments

Shake A Leg Bass Tab

Intro

G------------------------------------------|
D------------------------------------------|
A------------------------------------------|
E-0~-5--0~-(3x)-0~-5--0--5--0-(2x)-0-------|

G-------------------------|
D-------------------------|
A-------------------------|
E-0-3-0--0-3-0--0-3-0-----|

Main Riff/Verse

G-------------------------------|
D-------------------------------|
A----------22----44------55-----|
E-0-3-0-4-----5-------7---------|

Play 4 times, then

G-----------------------|
D-----------------------|
A-----------------------|
E-0000000000000000------|

Back to main riff once
Then back to verse  once
Then back to Main Riff once, then

G--------------------------|
D--------------------------|
A-0000000000000000---------|
E--------------------------|
[ Tab from: http://www.guitartabs.cc/tabs/a/ac_dc/shake_a_leg_btab_ver_2.html ]
G------------------------------------|
D----------22-------44------55-------|
A-0-3-0-4-------5---------7----------|
E------------------------------------|

Back to verse once and then main riff once

Chorus

G-----------------------------------------------------|
D-----------------------------------------------------|
A-77----------7-----------77----7-----77----7---------|
E-----7-555-----7--(3x)------7-----7-----7----7-------|

Back to verse then to chorus

Before the solo play

G-------------------------|
D-------------------------|
A-------------------------|
E-0-5-00-3-00-3-00-3-00---|

Twice, then during the solo play

G--------------------------------------------|
D-------------------------------------5------|
A-33----------33---------33--------5---------|
E-----5-555------5-555------5-555------------|

Play 4 times then play the chorus
Back to verse and repeat chorus to the end

Have fun
Comments