Ac Dc - Shake A Leg Chords & Tabs

 

Shake A Leg Chords & Tabs

Ac Dc Chords & Tabs

Version: 1 Type: Bass Tab 0 ratings
1 star 2 stars 3 stars 4 stars 5 stars
comments

Shake A Leg Bass Tab

Shake a Leg by AC/DC
Standard Tuning

G:-------------------------------------------------|
D:----5-------5--------5-------5---5-------5---5---|
A:7-----7-7-----7---7----7---7---7---7---7---7---7-|
E:-------------------------------------------------|

G:------------------|
D:--5------5------5-|
A:7---7--7---7--7---|
E:------------------|

G:----------------------------|
D:----------------------------|  X4
A:--------2-2-0-4-4-0-5-5-4---|
E:0-3-0-4---------------------|

G:------------------------------------------|
D:------------------------------------------|  X2
A:----------------------2-2-0-4-4-0-5-5-4---|
E:0-0-0--0-0-0--0-3-0-4---------------------|

G:----------------------------------------|
D:----------------------2-2-0-4-4-0-5-5-4-|
A:0-0-0--0-0-0--0-3-0-4-------------------|
E:----------------------------------------|

G:----------------------------------------|
D:----------------------------------------|
A:----------------------2-2-0-4-4-0-5-5-4-|
E:0-0-0--0-0-0--0-3-0-4-------------------|


shake a leg. . .
G:-------------|
D:2-2----2-----|  X5
A:----2----2---|
E:-------------|

G:----------------------------|
D:----------------------------|  X2
A:--------2-2-0-4-4-0-5-5-4---|
E:0-3-0-4---------------------|

G:------------------------------------------|
D:------------------------------------------|  X2
A:----------------------2-2-0-4-4-0-5-5-4---|
E:0-0-0--0-0-0--0-3-0-4---------------------|
[ Tab from: http://www.guitartabs.cc/tabs/a/ac_dc/shake_a_leg_btab.html ]
G:----------------------------------------|
D:----------------------2-2-0-4-4-0-5-5-4-|
A:0-0-0--0-0-0--0-3-0-4-------------------|
E:----------------------------------------|

G:----------------------------------------|
D:----------------------------------------|
A:----------------------2-2-0-4-4-0-5-5-4-|
E:0-0-0--0-0-0--0-3-0-4-------------------|

G:-------------|
D:2-2----2-----|  X5
A:----2----2---|
E:-------------|

G:------------------------------------|
D:------------------------------------|  X2
A:------------------------------------|
E:0-3-0--3-0-0--3-0-0--3-0-0--3-0-0---|

G:-----------------------------|
D:-----------------------------|  X4
A:---------------------5-4-----|
E:0-3-0--0-3-0--0-3-0------5---|

G:-------------|
D:2-2----2-----|  X5
A:----2----2---|
E:-------------|

G:------------------------------------------|
D:------------------------------------------|  X2
A:----------------------2-2-0-4-4-0-5-5-4---|
E:0-0-0--0-0-0--0-3-0-4---------------------|

G:----------------------------------------|
D:----------------------2-2-0-4-4-0-5-5-4-|
A:0-0-0--0-0-0--0-3-0-4-------------------|
E:----------------------------------------|

G:----------------------------------------|
D:----------------------------------------|
A:----------------------2-2-0-4-4-0-5-5-4-|
E:0-0-0--0-0-0--0-3-0-4-------------------|

G:----------------|
D:2-2----2--  X12-|
A:----2----2------|
E:----------------|

(Outro)
G:----------|
D:----------|
A:-7/-------|
E:----------|
Comments