Ac Dc - Safe In New York City Chords & Tabs

 

Safe In New York City Chords & Tabs

Ac Dc Chords & Tabs

Version: 1 Type: Bass Tab 0 ratings
1 star 2 stars 3 stars 4 stars 5 stars
comments

Safe In New York City Bass Tab

These are the bass tabs for safe in NY city.


G---------------------------------------|
D---------------------------------------|
A---------------------------------------|
E--3-5---3--5---3--0--------------------|


G-----------------------------------------------|
D-----------------------------------------------|
A-----------------------------------------------|
E---3--5--6--5--3--5--3--0----------------------|

Verse riff
[ Tab from: http://www.guitartabs.cc/tabs/a/ac_dc/safe_in_new_york_city_btab.html ]
G----------------------------------|
D----------------------------------|
A----------------------------------|
E-0--------------------------------|


G---------------------------------------------|
D---------------------------------------------|
A---------------------------------------------|
E-0-6-5-3-0---6-5-3-0----6-5-3-0--------------|


G----------------------------------|
D----------------------------------|
A----------------------------------|
E-0--------------------------------|

Chorus

G----------------------------------|
D----------------------------------|
A----------------------------------|
E-0--------------------------------|

This is as much as I could get. It can't really be heard...

By Lemonidas
Comments