Ac Dc - Ruff Stuff Chords & Tabs

 

Ruff Stuff Chords & Tabs

Ac Dc Chords & Tabs

Version: 2 Type: Tab 0 ratings
1 star 2 stars 3 stars 4 stars 5 stars
comments

Ruff Stuff Tab

Tuning: 1/2 step lower

eb---------------------------------|
Bb---------------------------------|
Gb---------------------------------|
Db---------------------------------|
Ab---0-4-5-4-2--0-4-0-5-----0-4-5--|
Eb---------------------------------|

eb----------------------------------|
Bb----------------------------------|
Gb----------------------------------|
Db-----------------7---7------------|
Ab-----------------4---5------------|
Eb----5-----------------------------|

eb---------------------------|
Bb---------------------3-----|
Gb----------------2----2-----|
Db----------------2----0-----|
Ab----------------0----------|
Eb---------------------------|

eb----------------------|
Bb------3-----3---------|
Gb---2--2--2--2---2-----|
Db---2--0--2--0---2-----|
Ab---0-----0------0-4-5-|
Eb----------------------|
[ Tab from: http://www.guitartabs.cc/tabs/a/ac_dc/ruff_stuff_tab_ver_2.html ]
eb--------------------------------------|--------------|
Bb--------------------------------------|--------------|
Gb----9-------------7-------------------|--------------|
Db----9-------------7-------------------|---5----------|
Ab----7-------------5-5-5-5-5-5-5-5-5---|---5----------|
Eb----0-0-0-0-0-0-----------------------|---3----------|

eb----------------------------------------|
Bb------------------3---------------------|
Gb-------------2----2---------------------|
Db-------------2----0---------------------|
Ab-------------0---------0-4-5-4-0--------|
Eb---------------------------------3-5----|

eb----------------------------------------|
Bb----------------------------------------|
Gb----------------------------------------|
Db----------------------------------------|
Ab----------------------------------------|
Eb--0--3----------------------------------|

eb----------------------------------------|
Bb-----/-8-8-8-8--8-----/-8--8-8-8-8------|
Gb-----/-9-9-9-9--9--7--/-9--9-9-9-9--7---|
Db-------------------7----------------7---|
Ab----------------------------------------|
Eb----------------------------------------|

Notation used
/-slide
Comments