Ac Dc - Ruff Stuff Chords & Tabs

 

Ruff Stuff Chords & Tabs

Ac Dc Chords & Tabs

Version: 1 Type: Tab 0 ratings
1 star 2 stars 3 stars 4 stars 5 stars
comments

Ruff Stuff Tab

I submitted this because there was none here so i had to make my own


Intro/Intro Verse:
E-------------------------------------------------------------------|
B-------------------------------------------------------------------|
G-------------------------------------------------------------------|
D--------------------6---------------------------6------------------|
A--3--4--3--1--1--3--4--3--4---3--4--3--1--1--3--4--3--4------------|
E-------------------------------------------------------------------|

--------------------------------------------------------------------|
--------------------------------------------------------------------|
-------------------------------------------------------------6------|
--------------------6---------------------------6---------6--6------|
--3--4--3--1--1--3--4--3--4---3--4--3--1--1--3--4--3--4---6--4------|
----------------------------------------------------------4---------|

Verse:
E-------------------------------------------------------------------------------|
B-------------------------------------------------------------------------------|
G--6--6--6--6--6-6----6--6--6--6--6-6----6--6--6--6--6-6----6--6--6--6--6-6-----|
D--6--6--6--6--6-6----6--6--6--6--6-6----6--6--6--6--6-6----6--6--6--6--6-6-----|
A--3--4--3--4--3-4----3--4--3--4--3-4----3--4--3--4--3-4----3--4--3--4--3-4-----|
E-------------------------------------------------------------------------------|

---------------------------------------------|
---------------------------------------------|
--6--6--6--6--6-6----6--6--6--6--6-6---------|
--6--6--6--6--6-6----6--6--6--6--6-6---------|
--3--4--3--4--3-4----3--4--3--4--3-4---------|
---------------------------------------------|

--------------------------------------------------------------|
--------------------------------------------------------------|
--------------------------------------------------------------|
--------------------6---------------------------6-------------|
--3--4--3--1--1--3--4--3--4---3--4--3--1--1--3--4--3--4-------|
--------------------------------------------------------------|

--------------------------------------------------------------|
--------------------------------------------------------------|
--------------------------------------------------------------|
--------------------6---------------------------6-------------|
--3--4--3--1--1--3--4--3--4---3--4--3--1--1--3--4--3--4-------|
--------------------------------------------------------------|

Pre-Chorus:
E-------------------------|
B-------------------------|
G--8----6-----------------|
D--8----6-----4-----------|
A--6----4-----4-----------|
E-------------2-----------|
[ Tab from: http://www.guitartabs.cc/tabs/a/ac_dc/ruff_stuff_tab.html ]
Intro/Intro Verse:
E-------------------------------------------------------------------|
B-------------------------------------------------------------------|
G-------------------------------------------------------------------|
D--------------------6---------------------------6------------------|
A--3--4--3--1--1--3--4--3--4---3--4--3--1--1--3--4--3--4------------|
E-------------------------------------------------------------------|

--------------------------------------------------------------------|
--------------------------------------------------------------------|
-------------------------------------------------------------6------|
--------------------6---------------------------6---------6--6------|
--3--4--3--1--1--3--4--3--4---3--4--3--1--1--3--4--3--4---6--4------|
----------------------------------------------------------4---------|

Verse:
E-------------------------------------------------------------------------------|
B-------------------------------------------------------------------------------|
G--6--6--6--6--6-6----6--6--6--6--6-6----6--6--6--6--6-6----6--6--6--6--6-6-----|
D--6--6--6--6--6-6----6--6--6--6--6-6----6--6--6--6--6-6----6--6--6--6--6-6-----|
A--3--4--3--4--3-4----3--4--3--4--3-4----3--4--3--4--3-4----3--4--3--4--3-4-----|
E-------------------------------------------------------------------------------|

---------------------------------------------|
---------------------------------------------|
--6--6--6--6--6-6----6--6--6--6--6-6---------|
--6--6--6--6--6-6----6--6--6--6--6-6---------|
--3--4--3--4--3-4----3--4--3--4--3-4---------|
---------------------------------------------|

--------------------------------------------------------------|
--------------------------------------------------------------|
--------------------------------------------------------------|
--------------------6---------------------------6-------------|
--3--4--3--1--1--3--4--3--4---3--4--3--1--1--3--4--3--4-------|
--------------------------------------------------------------|

--------------------------------------------------------------|
--------------------------------------------------------------|
--------------------------------------------------------------|
--------------------6---------------------------6-------------|
--3--4--3--1--1--3--4--3--4---3--4--3--1--1--3--4--3--4-------|
--------------------------------------------------------------|

Pre-Chorus:
E-------------------------|
B-------------------------|
G--8----6-----------------|
D--8----6-----4-----------|
A--6----4-----4-----------|
E-------------2-----------|

Chorus:
E-------------------------------------------------------------------------|
B-------------------------------------------------------------------------|
G-----6---------------------6---------------------6---------------------6-|
D--6--6------------------6--6------------------6--6------------------6--6-|
A--6--4----3-4-3---------6--4----3-4-3---------6--4----3-4-3---------6--4-|
E--4-----4-------4-2-4~--4-----4-------4-2-4~--4-----4-------4-2-4~--4----|
Comments