Ac Dc - Rocker Chords & Tabs

 

Rocker Chords & Tabs

Ac Dc Chords & Tabs

Version: 1 Type: Bass Tab 0 ratings
1 star 2 stars 3 stars 4 stars 5 stars
comments

Rocker Bass Tab

##NOTES##
Bass is tuned slightly flatted. Main notes are A,D,and E.

G||----------------------------------||
D||---------------------------------o|| Keep this rhythm for
A||---------------------------------o|| most of the intro
E||-5-5-5-5-5-5-5-5-5-5-5-5-5-5-5-5--||

G||----------------------------------||
D||----------------------------------||
A||-5-5-5-5-5-5-5-5-5-5-5-5-5-5-5-5--||
E||----------------------------------||

G||----------------------------------||
D||----------------------------------|| 
A||----------------------------------|| 
E||-5-5-5-5-5-5-5-5-5-5-5-5-5-5-5-5--||

G||----------------------------------||
D||----------------------------------||
A||----------------------------------||
E||-0-0-0-0-0-0-0-0-0-0-0-0-0-0-0-0--||
[ Tab from: http://www.guitartabs.cc/tabs/a/ac_dc/rocker_btab.html ]
G||--------------------||
D||--------------------||
A||--------------------||
E||-5-5-5-5-5-5-5-5-5--||

G||-----|-----|-----|------------------||
D||-----|-----|-----|------------------||
A||-----|-----|-----|------2-2-3-3-4-4-||
E||--5--|--5--|--5--|--5-5-------------||

G||----------------------------------|| #1
D||----------------------------------||
A||-5-5-5-5-5-5-5-5-5-5-5-5-5-5-5-5--||
E||----------------------------------||

G||----------------------------------|| #2
D||----------------------------------|| 
A||----------------------------------|| 
E||-5-5-5-5-5-5-5-5-5-5-5-5-5-5-5-5--||

G||----------------------------------|| #3
D||----------------------------------||
A||----------------------------------||
E||-0-0-0-0-0-0-0-0-0-0-0-0-0-0-0-0--||

G||--------------------||
D||--------------------|| #4
A||--------------------||
E||-5-5-5-5-5-5-5-5-5--||

Play riffs #1,#2,#3,and #4 for the solo.
Play riff #2 as an outro.
Comments