Ac Dc - Rock N Roll Damnation Chords & Tabs

 

Rock N Roll Damnation Chords & Tabs

Ac Dc Chords & Tabs

Version: 1 Type: Tab 1 rating
1 star 2 stars 3 stars 4 stars 5 stars
comments

Rock N Roll Damnation Tab

   
ROCK N ROLL DAMNATION
BY AC DC
ALBUM:POWERAGE
tabbed by mxking246@aol.com

B=bend
/=slide
|----------------------------------------------------------------------------------------|
|-----------8---------------------------------7------------------------------------------|rythym fig 1
|--------9---------------------------------7---------------------------------------------|
|-----7---------------------------------7------------------------------------------------|
|--0---------------------------------0---------------------------------------------------|
|----------------------------------------------------------------------------------------|


|----------------------------------------------------------------------------------------|
|-----------8---------------------------------7------------------------------2-----------|
|--------9---------------------------------7---------------------------------2-----------|
|-----7---------------------------------7------------------------------------2-----------|
|--0---------------------------------0---------------------------------------0-----------|
|----------------------------------------------------------------------------------------|
                                                                                          

|----------------------------------------------------------------------------------------|
|-----3----3---2-----------3----3---2-----------2----------------------------------------|
|-----2----2---2-----------2----4---2-----------2----------------------------------------|rythym fig 2
|-----4----4---2-----------4----2---2-----------2----------------------------------------|
|-----0----0---0---0---0---0----0---0---3---4---0----------------------------------------|
|----------------------------------------------------------------------------------------|chorus
  rythym fig 2 play eight times

|--3---2---------------------------------------------------------------------------------|
|--3---3---------2-----2--3---3---2------------------------------------------------------|
|--0---2---------2-----2--2---2---2------------------------------------------------------|rythym fig 3
|--0---0---------2-----2--4---4---2--2--0------------------------------------------------|
|----------------0-----0--0---0---0--0--0------------------------------------------------|
|--3-------------------------------------------------------------------------------------|
  rythym fig 3 play two times
    then
  rythym fig 2 two times
   then
rythym fig 1 two times
[ Tab from: http://www.guitartabs.cc/tabs/a/ac_dc/rock_n_roll_damnation_tab.html ]
      B                                       B             B                B
|--------------------------------------------------------------------17--------------17--|
|-----17-------17---------17--17--17--17------17------------17------------17-------------|
|--16(18)------14---------14--14--14--14---16(18)-----14-16(18)-----------16-(18)--------|
|--------------------16------------------------------------------------------------------|
|----------------------------------------------------------------------------------------|
|----------------------------------------------------------------------------------------|
 rythym fig 2 six times during this solo
      B            B          B            B          B           B        B         B
|--------17----------17----------17----------17----------17----------17---------17-------17-|
|-17-----------17---------------------------------------------------------------------------|
|-16(18)-------16(18)-----16(18)------16(18)-----16(18)------16(18)-----16(18)----16(18)----|
|-------------------------------------------------------------------------------------------|
|-------------------------------------------------------------------------------------------|
|-------------------------------------------------------------------------------------------|

      B          B         B         B
|---------17---------17--------17--------17----------------------------------------------|
|---------------------------------------------------------17-17-17-17-17-17-17-----------|
|--16(18)-----16(18)----16(18)----16(18)------------/18----------------------------------|
|--------------------------------------------------/-------------------------------------|
|----------------------------------------------------------------------------------------|
|----------------------------------------------------------------------------------------|

                                          B
|----------------------------------------------------17----------------17----------------|
|--17-17-17-17-17-17-17-17-17-17-17-17---------17-17----17-17-17-17-17-------------------|
|--------------------------------------19(21)---------------------------------2----------|
|-----------------------------------------------------------------------------2----------|
|-----------------------------------------------------------------------------0----------|
|----------------------------------------------------------------------------------------|


|----------------------------------------------------------------------------------------|
|---2--3----3----2-----------3---3--2------------2---------------------------------------|
|---2--2----2----2-----------2---2--2------------2---------------------------------------|rythym fig 4
|---2--4----4----2-----------4---4--2------------2---------------------------------------|
|---0--0----0----0---0---0---0---0--0----3---4---0---------------------------------------|
|----------------------------------------------------------------------------------------|play four times



|----------------------------------------------------------------------------------------|
|---2--3----3----2-----------3---3--2-----2----------------------------------------------|
|---2--2----2----2-----------2---2--2-----2----------------------------------------------|
|---2--4----4----2-----------4---4--2-----2----------------------------------------------|
|---0--0----0----0---0---0---0---0--0-----0----------------------------------------------|
|----------------------------------------------------------------------------------------|

please rate this	
Comments