Ac Dc - Rock N Roll Ain't Noise Pollution Chords & Tabs

 

Rock N Roll Ain't Noise Pollution Chords & Tabs

Ac Dc Chords & Tabs

Version: 4 Type: Tab 0 ratings
1 star 2 stars 3 stars 4 stars 5 stars
comments

Rock N Roll Ain't Noise Pollution Tab

AC/DC
Rock N' Roll Ain't Noise Pollution
Jay Clan Clan
[ Tab from: http://www.guitartabs.cc/tabs/a/ac_dc/rock_n_roll_aint_noise_pollution_tab_ver_4.html ]
Hey Rockers Its me again w/ some more kick ass AC/DC Tunes
here ya are
               1/4                   1/4
|---------------------------------------------|
|-0-2-3-2-2-3-----------0-2-3-2-2-3-----------|
|-1-2-4-2-2-4-----------1-2-4-2-2-4-----9-(9)\|
|---------------------2-----------------9-(9)\|
|-------0-0-0---------2-------0-0-0-----7-(7)\|
|--------------3b-(3)-0--------------3b-0-(0)\|
              1/4                   1/4
|---------------------------------------------|
|-1-2-3-2-2-3-----------1-2-3-2-2-3-----------|
|-2-2-4-2-2-4-----------2-2-4-2-2-4-----9-(9)\|
|-2-2-2-2-2-2---------2-2-2-2-2-2-2-----9-(9)\|
|-0-0---0-0-----------2-0-0---0-0-------7-(7)\|
|--------------3b-(3)-0--------------3b-0-(0)\|

Anouther master piese good shit this is!!
Comments