Ac Dc - Rock N Roll Ain't Noise Pollution Chords & Tabs

 

Rock N Roll Ain't Noise Pollution Chords & Tabs

Ac Dc Chords & Tabs

Version: 1 Type: Tab 3 ratings
1 star 2 stars 3 stars 4 stars 5 stars
comments

Rock N Roll Ain't Noise Pollution Tab

-------------------------------------------------------------------------------------------------------------------------------------------------------------------
------------------------------------------------------------------0----2---3----2---2----3------------------------------------------------------------------------------------
------0----2----3-----2----2----3-----------------------------1---2----4---2----2---4-----------------------------------------------------------------------------------------------------------------
------1----2----4-----2----2----4-----------------------2------------------------------------------------2--------------------------------------------------------
-------------------------------------------------------------2------------------------------------------------2-----------------------------------------------
-------------------------------------------------------3------------------------------------------------3------------------------------------------------------
                                                                                                         repeat this till verse



----------------------------------------------------------------------------------------------------------------------------------------------------------------
------0----2----3----2----2----4---------------------------------------------------------------------------------------------------------------------------------------
------1----2----4----2----2----3-----------------------------------------------------------------------------------------------------------------------------------------
------------------------------------------------------------2------------------------------------------------------------------------------------------------------
------------------------------------------------------------2-----------------------------------------------------------------------------------------------------
------------------------------------------------------3----------------------------------------------------------------------------------------------------------
                                                                                                    play till end
[ Tab from: http://www.guitartabs.cc/tabs/a/ac_dc/rock_n_roll_aint_noise_pollution_tab.html ]
Comments