Ac Dc - Rock N Roll Ain't Noise Pollution Chords & Tabs

 

Rock N Roll Ain't Noise Pollution Chords & Tabs

Ac Dc Chords & Tabs

Version: 2 Type: Bass Tab 0 ratings
1 star 2 stars 3 stars 4 stars 5 stars
comments

Rock N Roll Ain't Noise Pollution Bass Tab

G|--------------------------|
D|--------------------------|
A|2-3--5--3--3--5--2--------|
E|-------------------3------|

G|--------------------------|
D|--------------------------|
A|2-3--5--3--3--5--2--------|
E|-------------------3------|
[ Tab from: http://www.guitartabs.cc/tabs/a/ac_dc/rock_n_roll_aint_noise_pollution_btab_ver_2.html ]
G|--------------------------|
D|--------------------------|
A|2-3--5--3--3--5--2--------|
E|-------------------3------|

G|--------------------------|
D|--------------------------|
A|2-3--5--3--3--5--2--------|
E|-------------------3------|
[ Tab from: http://www.guitartabs.cc/tabs/a/ac_dc/rock_n_roll_aint_noise_pollution_btab_ver_2.html ]I don't play bass myself but I think that's the bass part.
That's 4 the whole song.
Comments