Ac Dc - Rock N Roll Ain't Noise Pollution Chords & Tabs

 

Rock N Roll Ain't Noise Pollution Chords & Tabs

Ac Dc Chords & Tabs

Version: 1 Type: Bass Tab 0 ratings
1 star 2 stars 3 stars 4 stars 5 stars
comments

Rock N Roll Ain't Noise Pollution Bass Tab

g:------------------------------
d:------------------------------
a:-3-5-7-5-5-7-3---3-5-7-5-5-3--
e:---------------5-------------5

g:------------------------------
d:------------------------------
a:-3-5-7-5-5-7-3---3-5-7-5-5-3--
e:---------------5-------------5
[ Tab from: http://www.guitartabs.cc/tabs/a/ac_dc/rock_n_roll_aint_noise_pollution_btab.html ]
g:------------------------------
d:------------------------------
a:-3-5-7-5-5-7-3---3-5-7-5-5-3--
e:---------------5-------------5

g:------------------------------
d:------------------------------
a:-3-5-7-5-5-7-3---3-5-7-5-5-3--
e:---------------5-------------5
[ Tab from: http://www.guitartabs.cc/tabs/a/ac_dc/rock_n_roll_aint_noise_pollution_btab.html ]
g:------------------------------
d:------------------------------
a:-3-5-7-5-5-7-3---3-5-7-5-5-3--
e:---------------5-------------5


just continue through whole song! its that simple
and if its wrong go easy on me i learned it my self and im only 12
Comments