Ac Dc - Rising Power Chords & Tabs

 

Ac Dc Chords & Tabs

Version: 1 Type: Tab 0 ratings
1 star 2 stars 3 stars 4 stars 5 stars
comments

Rising Power Tab

Song-Rising Power
Artists-Ac/dc
Guitarists-Angus young,Malcome young
Album-Flick Of The Switch
Tabbed By-smellslikefeet1

this is almost completely right some of the cords are hard to hear so i hope its close!


 verse1
|-------------|--------------|
|--3---3------|--------------|
|--2-4-2-4-4--|-2-2---4------|play 8 times
|--0-4-0-4-4--|-2-2---4------|
|----2---2-2--|-0-0-2-2------|
|-------------|-----0--------|

bridge to chorus
|-----------|----------|-----------------|
|-----------|----------|-----------------|
|--4-4-2-4--|-4-4-2----|-4-4-4-4-4-4-4-4-|
|--4-4-2-4--|-4-4-2----|-4-4-4-4-4-4-4-4-|
|--2-2-0-2--|-2-2-0-2--|-2-2-2-2-2-2-2-2-|
|-----------|-------0--|-----------------|

[ Tab from: http://www.guitartabs.cc/tabs/a/ac_dc/rising_power_tab.html ]
CHorus
|---------------|------------------|
|-----3---------|-----3-------3----|
|-4-2-2-2---4---|-4-2-2-2---2-2----|
|-4-2-0-2-2-4-2-|-4-2-0-2-2-2-0----|play 2 times
|-2-0---0-2-2-2-|-2-0---0-2-0------|
|---------0---0-|---------0--------|

play the verse bridge and chorus one mroe time 
then play verse cords through the solo
then play the chorus through the next part of the solo
play bridge and chorus one more time


you can put it all together after that 
the end cords are as follows

|---------|---------|-----------|
|---------|---------|--3-3------|
|--4-4-4--|--2-2-2--|--2-2-2-4--|
|--4-4-4--|--2-2-2--|--0-0-2-4--|train wreck on the last cord
|--2-2-2--|--0-0-0--|------0-2--|
|---------|---------|-----------|
Comments