Ac Dc - Riff Raff Chords & Tabs

 

Riff Raff Chords & Tabs

Ac Dc Chords & Tabs

Version: 3 Type: Tab 0 ratings
1 star 2 stars 3 stars 4 stars 5 stars
comments

Riff Raff Tab

        Riff Raff - AC/DC
-----------------------------------------------------------------------------
Tabbed by:Jarrett Mayberry
Email:NextAngusLegend@aol.com
[ Tab from: http://www.guitartabs.cc/tabs/a/ac_dc/riff_raff_tab_ver_3.html ]
Tuning:
                                            ~~~~~~~~~~~~~~
e|---------------------------------------------------------------------------|
B|---------------------------------------------------------------------------|
G|---------------------------------------------------------------------------|
D|--7-7-7--7-7-7--7-7-7--7-7-7--7-7-7--7-7-7---------------------------------|
A|--4-4-5--4-4-5--4-4-5--4-4-5--4-4-5--4-4-5---------------------------------|
E|---------------------------------------------------------------------------|
                                     ~~~~~~~~
e|---------------------------------------------------------------------------|
B|---------------------------------------------------------------------------|
G|---------------------------------------------2-----------------------------|
D|--7-7-7--7-7-7--7-7-7--7-7-7--7-7-7----------2-----------------------------|
A|--4-4-5--4-4-5--4-4-5--4-4-5--5-5-4----------0-----------------------------|
E|---------------------------------------------------------------------------|

e|---------------------------------------------------------------------------|
B|---------------------------------------------------------------------------|
G|--2-2-2--------------------------------------------------------------------|
D|--2-2-2----------2-4-------5-0---------------------------------------------|
A|--0-0-0---0-3-4-------3-0-------0------------------------------------------|
E|---------------------------------------------------------------------------|

e|--2-3-2----3-3-2-3-2-------------------------------------------------------|
B|--3-3-3----3-3-3-3-3-------------------------------------------------------|
G|--2-2-2----2-2-2-2-2---2------------------------------2-2-2----------------|
D|--0-0-0----0-0-0-0-0---2----------2-4-------5-0-------2-2-2----------------|
A|-----------------------0---0-3-4-------3-0-------0----0-0-0----------------|
E|---------------------------------------------------------------------------|

If you have any questions or if somethings wrong with this email me.Go buy a AC/DC album.
Comments