Ac Dc - Problem Child Chords & Tabs

 

Problem Child Chords & Tabs

Ac Dc Chords & Tabs

Version: 4 Type: Tab 0 ratings
1 star 2 stars 3 stars 4 stars 5 stars
comments

Problem Child Tab

AC/DC
"Problem Child"
From The 1976 Album "Dirty Deeds Done Dirt Cheap"



Rhythm fig. 1                                      play 3 times
|-----------------3-----------------------3---------------------|
|--3-----------3--3--x--x--3-----------3--3--x--x--3------------|
|--2--2--x--x--2--0--x--x--2--2--x--x--2--0--x--x--2--2---------|
|--0--2--x--x--0--0--x--x--0--2--x--x--0--0--x--x--0--2---------|
|-----0--x--x-----------------0--x--x-----------------0---------|
|-----------------3-----------------------3---------------------|


Rhythm fig. 2
|--3--3---------3--3---------3--3-----|
|--3--3--3------3--3--3------3--3--3--|
|--0--0--2------0--0--2------0--0--2--|
|--0--0--0------0--0--0------0--0--0--|
|-------------------------------------|
|--3--3---------3--3---------3--3-----|


                                               end rhythm fig. 2    
|-------------------------------------------------------3-------|
|-------------------------------------------------------3-------|
|--2--2---------2--2---------2---2---------2--2---------0--2----|
|--2--2--2------2--2--2------2---2--2------2--2--2------0--2----|
|--0--0--2------0--0--2------0---0--2------0--0--2---------0----|
|--------0------------0-------------0------------0------3-------|
                                                         I'm a pr..

Rhythm fig. 3
|-----------------------------------3----------------------------|
|-----3---------------3-------------3--------------------3-------|
|--5--2-----2------5--2-------------0--2--------------5--2-------|
|--5--0-----2------5--0-------------0--2--------------5--0-------|
|--3--------0------3-------------------0--------------3----------|
|-----------------------------------3----------------------------|
         a  prob...      yes I am...                        


|--------------------3--------------------------------------------|
|--------------------3----------------------------3---------------|
|------2-------------0--------------1-------------2---------------|
|------2-------------0--2-----------2-------------0--2------------|
|---0--0----------------2-----------2----------------2------------|
|--------------------3--0-----------0----------------0------------|
         and I\\\'m wild._

Solo       ~~~~~                   ~~~~~~~~~~~~~       ~~~~                        
|-----------------------------------------------------------------|
|-----------------------------------------------------------------|
|---------------2b(4)r2r0--2p0-------------------------4----------|
|--------2--2----------------------2------------------------------|
|-----------------------------------------------------------------|
|--3b(4)------------------------3---------------------------------|



|-------------2-5---2---------------------------------------------|
|---5b(6)b(7)-----5---5-3---5---3---------------------------------|
|-------------------------4---4---4-4-2-4----------2---1---4------|
|-----------------------------------------------------------------|
|-----------------------------------------------------------------|
|-----------------------------------------------------------------|


   ~~~~~~~
|--------------------------------------------------------7--------|
|----------------------------------------------------------7-10---|
|--4-------------------------------6-6-7-9-9--------------------9-|
|----------7-4-7-4-7-4------4-6-7-9-------------------------------|
|---------------------7p5-7---------------------------------------|
|-----------------------------------------------------------------|


[ Tab from: http://www.guitartabs.cc/tabs/a/ac_dc/problem_child_tab_ver_4.html ]
|----------------------------------7-10p7----------12b(14)--------|
|-7---------------------------------------10-12p10----------------|
|---9-7---9---7/11------------------------------------------------|
|-------9---9-----------------------------------------------------|
|-----------------------------------------------------------------|
|-----------------------------------------------------------------|


                ~~~~~~~          ~~~~~~~~~~~~              hold
|--12--10----------------------15b(17)-------(17)r(16)-(16)b(17)--|
|----------12--12-------------------------------------------------|
|-----------------------------------------------------------------|
|-----------------------------------------------------------------|
|-----------------------------------------------------------------|
|-----------------------------------------------------------------|

                                                            hold bend
  bend                               hold bend              ~~~~~~
|-(17)r(16)-(16)b(17)-(17)r(16)-(16)b(17)-(17)r(16)-(16)b(17)-----|
|-----------------------------------------------------------------|
|-----------------------------------------------------------------|
|-----------------------------------------------------------------|
|-----------------------------------------------------------------|
|-----------------------------------------------------------------|



|-r15p12--------------------20b(22)-20--17----20b(22)-20---17-----|
|------------17h20p17----17----------------17-----------------17--|
|---------------------19------------------------------------------|
|-----------------------------------------------------------------|
|-----------------------------------------------------------------|
|-----------------------------------------------------------------|



|-20b(22)-20-20b22-----17-20-17----17------------------------------|
|-------------------------------20----20-17---------17-17-20-------|
|-------------------------------------------19b(21)----------19b(21|
|------------------------------------------------------------------|
|------------------------------------------------------------------|
|------------------------------------------------------------------|



|------------------------------------------------------------------|
|--17-17-20--------20--------17-20--------17-20--------17-20-------|
|)---------19b(21)---19b(21)------19b(21)------19b(21)------19b(21)|
|------------------------------------------------------------------|
|------------------------------------------------------------------|
|------------------------------------------------------------------|


                                               ~~~~
|------------------------------------------------------------------|
|-17------------20-20--------17-------------------------17---------|
|----19b(21)---------19b(21)----19-17----19----19----------19-17---|
|-------------------------------------19----19-------------------19|
|------------------------------------------------------------------|
|------------------------------------------------------------------|



|------------------------------------------------------------------|
|------------------------------------------------------20----------|
|-19----17-19-17----17--------------------19b(21)---------19b(21)--|
|----19----------19----19-17----19---19----------------------------|
|----------------------------19------------------------------------|
|------------------------------------------------------------------|


                                                          ~~~~
|--17-17-------17--------------------------------------------------|
|--------20p17----20-17----17--------------------------------------|
|-----------------------19----19-17----19-17-----------------------|
|-----------------------------------19-----------------------------|
|------------------------------------------------------------------|
|-----------------------------------------------15b(19)r(17)-------|
Comments