Ac Dc - Night Prowler Chords & Tabs

 

Night Prowler Chords & Tabs

Ac Dc Chords & Tabs

Version: 1 Type: Bass Tab 0 ratings
1 star 2 stars 3 stars 4 stars 5 stars
comments

Night Prowler Bass Tab

The main riff of the song is this:

G|------0---------------|
D|----0---0-------------|
A|--0-------------------|
E|----------------------|

G|------0-0---------------|
D|----0-----0-------------|
A|--0---------------------|
E|------------------------|
[ Tab from: http://www.guitartabs.cc/tabs/a/ac_dc/night_prowler_btab.html ]
You play this riff in the intro and as a verse.

To play the chorus, you play the main riff once and the rest you play this:

G|--------------0---------0-0-----|
D|------------0---0-----0-----0---|
A|----------0---------0-----------|
E|-0-1-2-4------------------------|

That is pretty much it!

Enjoy!

By Lemonidas
Comments