Ac Dc - Night Of The Long Knives Chords & Tabs

 

Night Of The Long Knives Chords & Tabs

Ac Dc Chords & Tabs

Version: 1 Type: Tab 0 ratings
1 star 2 stars 3 stars 4 stars 5 stars
comments

Night Of The Long Knives Tab

AC/DC - Night Of The Long Knives 
From the "For Those About To Rock" album.
Tabbed by Voytazz




Intro:

E--3----3----2----|--3----3----2---------|
B--3----3----3----|--3----3----3---------|
G--0----0----2----|--0----0----2----2----|
D--0----0----0----|--0----0----0----2----|
A--2----2---------|--2----2---------0----|
E--3----3---------|--3----3--------------|

E--3----3-3--2---------|--3----3-3--2----|
B--3----3-3--3---------|--3----3-3--3----|
G--0----0-0--2----2----|--0----0-0--2----|
D--0----0-0--0----2----|--0----0-0--0----|
A--2----2-2-------0----|--2----2-2-------|
E--3----3-3------------|--3----3-3-------|

E------------------------|------------------------------|
B----------------3--2~~--|------------------------------|
G----------------4--2~~--|------------------------------| x2
D-----------2------------|-----------2----0-------------|
A-----------2------------|-----------2------4p2p0-------|
E--0--2h3h4--------------|--0--2h3h4--------------3p2p--|

Verse:

E-------------------|    |-------------------|
B-------------------|    |-------------------|
G--------------5----| x4 |--------------7----| x4
D--5-5----3----5----|    |--7-7----5----7----|
A--5-3----3----3----|    |--7-7----5----5----|
E--3-3----1---------|    |--5-5----3---------|

Chorus:

E--3----3--3----2--------|    |--3----3--3-----2--------|
B--3----3--3----3--------|    |--3----3--3-----3--------|
G--0----0--0----2----2---| x3 |--0----0--0-----2--------|
D--0----0--0----0----2---|    |--0----0--0-----0--------|
A--2----2--2---------0---|    |--2----2--2--------------|
E--3----3--3-------------|    |--3----3--3--------------|

E------------------------|------------------------------|
B----------------3--2~~--|------------------------------|
G----------------4--2~~--|------------------------------| x2
D-----------2------------|-----------2----0-------------|
A-----------2------------|-----------2------4p2p0-------|
E--0--2h3h4--------------|--0--2h3h4--------------3p2p--|


Now play the Verse & Chorus one more time, before the Solo:


Pre-Solo:

E----------------3--2~~--|------------------------------|
B----------------5--3~~--|------------------------------|
G-----------2------------|-----------2----0-------------|
D-----------2------------|-----------2------4p2p0-------|
A--0--2h3h4--------------|--0--2h3h4--------------3p2---|
E------------------------|------------------------------|

E------------------------|------------------------------|
B----------------3--2~~--|------------------------------|
G----------------4--2~~--|------------------------------|
D-----------2------------|-----------2----0-------------|
A-----------2------------|-----------2------4p2p0-------|
E--0--2h3h4--------------|--0--2h3h4--------------3p2p--|

Solo:

Guitar 1

E-------------------|    |-------------------|
B-------------------|    |-------------------|
G--------------5----| x4 |--------------7----| x4
D--5-5----3----5----|    |--7-7----5----7----|
A--5-3----3----3----|    |--7-7----5----5----|
E--3-3----1---------|    |--5-5----3---------|

Guitar 2
[ Tab from: http://www.guitartabs.cc/tabs/a/ac_dc/night_of_the_long_knives_tab.html ]
E------------------------|------------------------------|
B------------------------|------------------------------|
G------------------------|--5b-(7)----5--3~~--\---------|
D--0----5h8----5----3~~--|------------------------------|
A------------------------|------------------------------|
E------------------------|------------------------------|

E--3----3---1-0-----------------------------------------|
B---------3-----3-1-------------------------------------|
G-------------------3--2--0-----------------------------|
D------------------------------5----5--\--3--3--/-------|
A-------------------------------------------------------|
E-------------------------------------------------------|

E------------------------|--5------5~~--\----5----------|
B------------------------|-------8----------------------|
G----5-------------------|------------------------------|
D--7---7-----------------|------------------------------|
A----------7p6p5---------|------------------------------|
E----------------8p5--/--|------------------------------|

E--5-----4--/--5----4-5----5h8p5--5--5------------------|
B----5h8-------------------------------8-5--------------|
G-------------------------------------------------------|
D-------------------------------------------5--5--------|
A-------------------------------------------------------|
E-------------------------------------------------------|

Chorus:

E--3----3--3----2--------|
B--3----3--3----3--------|
G--0----0--0----2----2---| x4
D--0----0--0----0----2---|
A--2----2--2---------0---|
E--3----3--3-------------|

Outro:

Guitar 1

E--3----3--3----2--------|    |--3----3--3----2----2--2--|
B--3----3--3----3--------|    |--3----3--3----3----3--3--|
G--0----0--0----2----2---| x3 |--0----0--0----2----2--2--|
D--0----0--0----0----2---|    |--0----0--0----0----0--0--|
A--2----2--2---------0---|    |--2----2--2---------------|
E--3----3--3-------------|    |--3----3--3---------------|

E--3----3--3----2----2--2---------|----------------------|
B--3----3--3----3----3--3---------|----------------------|
G--0----0--0----2----2--2----2----|--2-------------------|
D--0----0--0----0----0--0----2----|--2-------------------|
A--2----2--2-----------------0----|--0-------------------|
E--3----3--3----------------------|----------------------|

Guitar 2

E------------------------------|------------------------------|
B--8~~----8-8~~----7~~----5~~--|--8~~----8-8~~----7~~----5~~--|
G------------------------------|------------------------------|
D------------------------------|------------------------------|
A------------------------------|------------------------------|
E------------------------------|------------------------------|

E--5-----5~~----5--------------|----------10~~----12h15p12~~--|
B-----5------------8--5--5~~---|--10~~------------------------|
G------------------------------|------------------------------|
D------------------------------|------------------------------|
A------------------------------|------------------------------|
E------------------------------|------------------------------|

E--15p12~~----10--8--------10--8--------10--12~~---15p12~~----|
B--------------------10-----------10--------------------------|
G-------------------------------------------------------------|
D-------------------------------------------------------------|
A-------------------------------------------------------------|
E-------------------------------------------------------------|


 AC/DC Kicks ASSSSSSSSSSSSSS!!!
Check for Voytazz tabs... Ac/Dc Tabs!
Comments